Oops, an error
Loading. Please wait.

Death Valley Superstars Bass Tab

version 1
version 1

Whole song

Interactive

424 views 1 this week
no commentswrite comment
1 2 3 4 5
please rate
add to favorites
launch autoscroll
font size
0
reset
guitar tuner
Autoscroll
slow
fast
+/-
esc
set tempo
stop
Help us to improve Ultimate-Guitar.com Take our survey!
×
Author
Difficulty
novice
-----------------------------------------------------------------
Death Valley Superstars - Murderdolls
-----------------------------------------------------------------

Tabbed By: theginashia35

Tuning: Standard

Intro (this is also the main riff)
G|---------------------------------------------------------------|
D|---------------------------------------------------------------|
A|-----------------1-0-1-0---0-----------------------------------|
E|-0-2-3-2-0-2-3-0-----------------------------------------------|x4

Verse
G|---------------------------------------------------------------|
D|---------------------------------------------------------------|
A|---------------------------------------------------------------|
E|-00000000000000000000000000000000------(32x0)------------------|

G|---------------------------------------------------------------|
D|---------------------------------------------------------------|
A|-----------------1-0-1-0---0-----------------------------------|
E|-0-2-3-2-0-2-3-0-----------------------------------------------|x2

G|---------------------------------------------------------------|
D|---------------------------------------------------------------|
A|---------------------------------------------------------------|
E|-00000000000000000000000000000000------(32x0)------------------|

G|---------------------------------------------------------------|
D|---------------------------------------------------------------|
A|-----------------1-0-1-0---0-----------------------------------|
E|-0-2-3-2-0-2-3-0-----------------------------------------------|x2

Chorus
G|---------------------------------------------------------------|
D|---------------------------------------------------------------|
A|---------------------------------------------------------------|
E|-8-888888--3-333333-5-55533555555555---------------------------|x3

G|---------------------------------------------------------------|
D|---------------------------------------------------------------|
A|---------------------------------------------------------------|
E|-6-666666666666553333333322221111------------------------------|

Back to verse
G|---------------------------------------------------------------|
D|---------------------------------------------------------------|
A|-----------------1-0-1-0---0-----------------------------------|
E|-0-2-3-2-0-2-3-0-----------------------------------------------|x4

G|---------------------------------------------------------------|
D|---------------------------------------------------------------|
A|---------------------------------------------------------------|
E|-00000000000000000000000000000000---(32x0)---------------------|

G|---------------------------------------------------------------|
D|---------------------------------------------------------------|
A|-----------------1-0-1-0---0-----------------------------------|
E|-0-2-3-2-0-2-3-0-----------------------------------------------|x2

G|---------------------------------------------------------------|
D|---------------------------------------------------------------|
A|---------------------------------------------------------------|
E|-00000000000000000000000000000000---(32x0)---------------------|

G|---------------------------------------------------------------|
D|---------------------------------------------------------------|
A|-----------------1-0-1-0---0-----------------------------------|
E|-0-2-3-2-0-2-3-0-----------------------------------------------|x2

Chorus
G|---------------------------------------------------------------|
D|---------------------------------------------------------------|
A|---------------------------------------------------------------|
E|-8-888888--3-333333-5-55533555555555---------------------------|x3

G|---------------------------------------------------------------|
D|---------------------------------------------------------------|
A|---------------------------------------------------------------|
E|-6-666666666666553333333322221111------------------------------|

Bridge
G|---------------------------------------------------------------|
D|---------------------------------------------------------------|
A|---------------------------------------------------------------|
E|-0-00003-0-030355553-0-----------------------------------------|x2

Solo
G|---------------------------------------------------------------|
D|---------------------------------------------------------------|
A|---------------------------------------------------------------|
E|-6-000000--6-000000--6-000000--0-333-555-----------------------|x3


G|---------------------------------------------------------------|
D|---------------------------------------------------------------|
A|---------------------------------------------------------------|
E|-6-000000--6-000000--00000000-0-333-555------------------------|

Chorus
G|---------------------------------------------------------------|
D|---------------------------------------------------------------|
A|---------------------------------------------------------------|
E|-8-888888--3-333333-5-55533555555555---------------------------|x3

G|---------------------------------------------------------------|
D|---------------------------------------------------------------|
A|---------------------------------------------------------------|
E|-6-666666666666553333333322221111------------------------------|

Bridge
G|---------------------------------------------------------------|
D|---------------------------------------------------------------|
A|---------------------------------------------------------------|
E|-0-00003-0-030355553-0-----------------------------------------|x4

Outro
G|---------------------------------------------------------------|
D|---------------------------------------------------------------|
A|---------------------------------------------------------------|
E|-6-000000--6-000000--6-000000--0-333-555-----------------------|x2

G|---------------------------------------------------------------|
D|---------------------------------------------------------------|
A|---------------------------------------------------------------|
E|-6-000000000--6-000000000--6-000000000--0-333-555--------------|

G|---------------------------------------------------------------|
D|---------------------------------------------------------------|
A|---------------------------------------------------------------|
E|-6-000000000--6-000000000--6-000000000--0-333-555-0------------|


| /  slide up
| \  slide down
| h  hammer-on
| p  pull-off
| ~  vibrato
| +  harmonic
| x  Mute note
Suggest correction
Give kudos to tab author, rate the tab!
1 2 3 4 5
comments
print report bad tab
guest
You may want to rate the tab now too:
select rating
Wanna post a correction for this tab? Suggest correction