Oops, an error
Loading. Please wait.

Die My Bride Tab

version 6
version 6
563 views 1 this week
2 commentsread comments
1 2 3 4 5
please rate
add to favorites
launch autoscroll
font size
0
reset
how to read this tab
guitar tuner
Tab Pro tools
  • play this tab
  • loop segment
  • change instrument
  • show fretboard
  • metronome
×
Best way to learn
"Die My Bride"
Autoscroll
slow
fast
+/-
esc
set tempo
stop
Contributor
Difficulty
novice
Murderdolls - die my bride tab

This song is really easy, took me two seconds to tab it out so have fun.

Main riff (really not main riff more main sound)
and this is also bass riff
--------------------------------|
--------------------------------|
--------------------------------|
--------------------------------|
--------------------------------|
-00000000-333333-222222-0000000-|

Chorus

----------------------------------|
----------------------------------|
----------------------------------|
-22-3/4-22-22-3/4-22--------------|
-22-3/4-22-22-3/4-22--------------|
-00-1/2-00-00-1/2-00--------------|

-------------------------------|
-------------------------------|
-------------------------------|
-7-5--2------------------------|
-7-5--2------------------------|
-5-3--0------------------------|
>Die my bride---

Pre-Chours
-------------------------------|
-------------------------------|
-------------------------------|
-------------------------------|
-99-X--77-X-66-X-53------------|
-77-X--55-X-44-X-33------------|


That's it. play it out, and rate with mercy
Metalhead forever

If anything is wrong with it notice me: daniel-san@hotmail.com
comments
We did not receive enough feedback on this tab! Please rate:
print report bad tab
1 2 3 4 5
2 comments total.
0 reply
Dominic_91 wrote on May 6 2006, 08:54 am

Isnt It :

e|--------
b|--------
g|--------
d|--------
a|2-2-4-5-
e|0-0-2-3-


That Sound's Betta..?

0 reply
wade_the_sk8er wrote on April 30 2008, 09:50 pm

hey man. i liked the tab but it needs the amount of times you have to play each section...it got confusing trying to play it on time not knowing that. but other than that it sounds great!

I want to post or [tab]
guest
You may want to rate the tab now too:
select rating
Please do not post tabs as comments. Select "correction" instead!