Oops, an error
Loading. Please wait.

Drug Me To Hell Bass Tab

339 views 1 this week
no commentswrite comment
1 2 3 4 5
1 last vote to show rating
add to favorites
launch autoscroll
font size
0
reset
guitar tuner
Autoscroll
slow
fast
+/-
esc
set tempo
stop
Help us to improve Ultimate-Guitar.com Take our survey!
×
Author
Difficulty
Tuning
intermediate
C G C F A D
-----------------------------------------------------------------------------
                             Drug Me To Hell - Murderdolls
-----------------------------------------------------------------------------
Tabbed by: Andu Needle
E-mail: sulfur_in_my_lungs@yahoo.com

Intro:

F|-----------------------------------------------------------|
C|-----------------------------------------------------------|
G|-----------------------------------------------------------|
C|-55555555-55-35-35-0---------------------------------------|

F|-----------------------------------------------------------|
C|-----------------------------------------------------------|
G|-------------------------------3-0-3-5-555-----------------|
C|-03-030-00-30-30-000-03-030-00-----------------------------|(x2)

Verse/Chorus/Solo:

F|-----------------------------------------------------------|
C|-----------------------------------------------------------|
G|-------------------------------3-0-3-5-555-----------------|
C|-03-030-00-30-30-000-03-030-00-----------------------------|

Pre chorus:

F|------------------------------------------------------------|
C|------------------------------------------------------------|
G|------------------------------------------------------------|
C|-66666666-5-3-0-0000----------------------------------------|(x3)

F|------------------------------------------------------------|
C|------------------------------------------------------------|
G|------------------------------------------------------------|
C|-33333333-3-553535------------------------------------------|

After the last 5 you go straight into the main riff.

Before the last chorus there is only this part:

F|-------------------------------------------------------------|
C|-------------------------------------------------------------|
G|-------------------------------------------------------------|
C|-33333333-3-553535-------------------------------------------|

I`m not sure about the pre chorus part. It`s all I could do. If you have a better 
version, I`d be happy to learn it.
Suggest correction
Give kudos to tab author, rate the tab!
1 2 3 4 5
comments
print report bad tab
guest
You may want to rate the tab now too:
select rating
Wanna post a correction for this tab? Suggest correction