Oops, an error
Loading. Please wait.

Gravediggin Bass

106 views 1 this week
3 commentsread comments
1 2 3 4 5
1 last vote to show rating
add to favorites
launch autoscroll
font size
0
reset
guitar tuner
×
Best way to learn
"Gravediggin"
Autoscroll
slow
fast
+/-
esc
set tempo
stop
Tuning: Standard (E A D G)

Key:

x - palm mute
h - hammer on
p - pull off
 - strum eight times

Intro / Verse

G:----------------------------------------------------------:
D:----------------------------------------------------------:
A:---------------5-5-/-4-\-5----3-3-/-2-\-3-----------------:
E:--3-3-/-2-\-3--------------------------------3-3-/-2-\-3--:


Chorus

G:--------------------------------------------------:
D:--------------------------------------------------:
A:-------------------5-5-5-5-5-5-5-5--3-3-3-3-3-3-3-:
E:--3-3-3-3-3-3-3-3---------------------------------:

G:-------------------:
D:-------------------:
A:-------------------:
E:--3-3-3-3-3-3-3-3--:
Suggest correction
Give kudos to tab author, rate the tab!
1 2 3 4 5
comments
print report bad tab
3 comments total.
-1 reply
MTS 10 Mar 17, 2006 10:50 PM

finally some good Murderdolls songs on the bass!

+1 reply
BroDD 368 Jun 30, 2006 03:01 AM

What the hell is this? It's not even called "Gravediggin" you dumbass..

+1 reply
Necro-cide 1,206 Jul 04, 2008 03:54 PM

This boy is a friggin' idiot. He thinks he knows everything about ****ing W13 but he's getting all the Songs titles wrong and the project that it was written for wrong.

He has the Murderdolls version of welcome to the strange labelled as

"Welcome to the strange place called Hell - Wednesday 13"

What a toss-pot.

guest
You may want to rate the tab now too:
select rating
Wanna post a correction for this tab? Suggest correction