Oops, an error
Loading. Please wait.

Hello Goodbye Die Bass Tab

version 1
version 1

Whole song

150 views 1 this week
no commentswrite comment
1 2 3 4 5
3 more votes to show rating
add to favorites
launch autoscroll
font size
0
reset
guitar tuner
Autoscroll
slow
fast
+/-
esc
set tempo
stop
Help us to improve Ultimate-Guitar.com Take our survey!
×
Author
Difficulty
Tuning
novice
C G C F A D
-----------------------------------------------------------------------------
                       Murderdolls - Hello, Goodbye, Die
-----------------------------------------------------------------------------

Tabbed by: Metalrock4ever

Tuning: CGCF

Intro:
F|---------------------|
C|---------------------|
G|---------------------| x4
C|-4444-4444-7777-6666-|

F|-----------|
C|-----------|
G|-----------|
C|-4444-4444-|


Verse:
F|------------------|
C|------------------|
G|------------------|
C|-4444-4444-4444-4-|


Post-Verse:
F|---------------------|
C|---------------------|
G|---------------------| x2
C|-4444-4444-7777-6666-|

F|-----------|
C|-----------|
G|-----------|
C|-4444-4444-|


Verse 2:
F|------------------|
C|------------------|
G|------------------|
C|-4444-4444-4444-4-|


Post-Verse:
F|---------------------|
C|---------------------|
G|---------------------| x2
C|-4444-4444-7777-6666-|


Pre-Chorus:
F|-----------------------------------------------------------|
C|-----------------------------------------------------------|
G|-22-00-----------22-00-----------22-00-----------0000-2222-|
C|-------4444-4444-------4444-4444-------4444-4444-----------|


Chorus:
F|---------------------|
C|---------------------|
G|---------------------| x4
C|-4444-4444-7777-6666-|


Bridge:
F|---------------------|
C|---------------------|
G|---------------------| x4
C|-4444-4444-7777-6666-|


Pre-Chorus:
F|-----------------------------------------------------------|
C|-----------------------------------------------------------|
G|-22-00-----------22-00-----------22-00-----------0000-2222-|
C|-------4444-4444-------4444-4444-------4444-4444-----------|


Chorus 2:
F|---------------------|
C|---------------------|
G|---------------------| x4
C|-4444-4444-7777-6666-|


Outro:
F|---------|
C|---------|
G|-22-00---|
C|-------4-|

**************************
| /  slide up
| \  slide down
| h  hammer-on
| ~  vibrato
| +  harmonic
| x  Mute note
**************************

If you have any comments/corrections, please say in either the comments box or 
leave me a message. Good luck and enjoy!
Suggest correction
Give kudos to tab author, rate the tab!
1 2 3 4 5
comments
print report bad tab
guest
You may want to rate the tab now too:
select rating
Wanna post a correction for this tab? Suggest correction