Oops, an error
Loading. Please wait.

Homicide Drive Tab

1,628 views 1 this week
no commentswrite comment
1 2 3 4 5
please rate
add to favorites
launch autoscroll
font size
0
reset
how to read this tab
guitar tuner
Autoscroll
slow
fast
+/-
esc
set tempo
stop
Help us to improve Ultimate-Guitar.com Take our survey!
×
Author
Difficulty
Tuning
novice
C G C F A D
"Homicide Drive" - Murderdolls
Tuning: Drop C
Tabbed By: Sheppy96
Email: msheppard96googlemailcom



Here's "Homicide Drive" off the new Murderdolls album, "Women and Children Last". 
I know I haven't tabbed the solo, I know, I know. I may do that if I get time.
Please rate/comment :) Thanks, and have a happy trip down Homicide Drive ;)

=================================


Riff A

Guitar 1
  >         Rpt x2           < > Rpt x4 <
D|----------------------------|----------|
A|----------------------------|----------|
F|----------------------------|-----19~--|
C|--0--0h2h3p2-0-3--6-5-4-3~--|--0~------|
G|----------------------------|----------|
C|----------------------------|----------|

Guitar 2
  >        Rpt. x2         < 
D|--------------------------|--------------------------------|-----------------------------------|
A|--------------------------|--------------------------------|-----------------------------------|
F|--------------------------|--------------------------------|-----------------------------------|
C|--------------------------|--------------------------------|----------------------------6-6-6--|
G|-0--0-2-3-2-0-3--6-5-4-3--|-0--0-2-3-2-0-3-0--0-2-3-2-0-6--|--0--0-2-3-2-0-3-0--0-2-3-2-6-6-6--|
C|-0--0-2-3-2-0-3--6-5-4-3--|-0--0-2-3-2-0-3-0--0-2-3-2-0-6--|--0--0-2-3-2-0-3-0--0-2-3-2-6-6-6--|
      . . . . .                  . . . . . .    . . . .            . . . .        . . . .





Riff B

Guitar 2

D|-------------------|
A|-------------------|
F|-------------------|
C|--0----5----3--/6--|
G|--0----5----3--/6--|
C|--0----5----3--/6--|





Riff C

Guitar 1
  >   Rpt. x4   < >    Rpt. x4  <
D|---------------|--21-21-21-21--|
A|---------------|---------------|
F|--19-19-19-19--|---------------|
C|---------------|---------------|
G|---------------|---------------|
C|---------------|---------------|


Guitar 2
  >    Rpt. x3    <                     >   Rpt. x3    <
D|-----------------|-------------------|----------------|--------------------|
A|-----------------|-------------------|----------------|--------------------|
F|-----------------|-------------------|----------------|--------------------|
C|-----------------|-------------------|----------------|-------------6-6-6--|
G|--0-0-2-0-2-3-0--|--0-0-2-0-2-3-0-3--|-0-0-2-0-2-3-0--|--0-0-2-0-2--6-6-6--|
C|--0-0-2-0-2-3-0--|--0-0-2-0-2-3-0-3--|-0-0-2-0-2-3-0--|--0-0-2-0-2--6-6-6--|
    . . . . . . .     . . . . . . . .    . . . . . . .     . . . . .




Riff D

Guitar 2
  >     Rpt. x2     <
D|-------------------|-----------------------------------|
A|-------------------|-----------------------------------|
F|-------------------|-----------------------------------|
C|-------------------|-----------------------------------|
G|--0-0-0-0-0-0-0-0--|--5-5-5-5-5-5-5-5-3-3-3-3-6-6-6-6--|
C|--0-0-0-0-0-0-0-0--|--5-5-5-5-5-5-5-5-3-3-3-3-6-6-6-6--|
    . . . . . . . .     . . . . . . . . . . . . . . . .




Riff E

Guitar 1
D|----------------|
A|----------------|
F|----------------|
C|--0-------------|
G|----------------|
C|----------------|

Guitar 2     (You'll need to learn the rhythm for this bit)
  > Rpt. x4   < >   Rpt. x2  <
D|-------------|--------------|--------------------------|
A|-------------|--------------|--------------------------|
F|-------------|--------------|--------------------------|
C|-------------|--------------|--------------------------|
G|--0-0-0--0-0-|--5-5-5--5-5--|--3-3-3--3-3--6-6-6--6-6--|
C|--0-0-0--0-0-|--5-5-5--5-5--|--3-3-3--3-3--6-6-6--6-6--|
    . . .  . .    . . .  . .


=================================


ORDER:

Riff A     x 1
Riff B     x 2

Riff A     x 1
Riff B     x 2

Riff C     x 1
Riff A     x 2

Riff D     x 4

Riff A     x 2
Riff B     x 1

Riff E     x 8
(Guitar 1 comes in on x 3)
(Fadeout from x 5



=================================



LEGEND:


> Rpt x2 <        Repeat section between signs amount of times stated
h                 Hammer-on to next note
p                 Pull-off from previous note
~                 Vibrato
.                 Palm-mute notes in line
/                 Slide up to next note.
Suggest correction
Give kudos to tab author, rate the tab!
1 2 3 4 5
comments
print report bad tab
guest
You may want to rate the tab now too:
select rating
Wanna post a correction for this tab? Suggest correction