Oops, an error
Loading. Please wait.

I Take Drugs Tab

version 2
version 2

Whole song

Interactive

236 views 1 this week
no commentswrite comment
1 2 3 4 5
1 last vote to show rating
add to favorites
launch autoscroll
font size
0
reset
how to read this tab
guitar tuner
Autoscroll
slow
fast
+/-
esc
set tempo
stop
Help us to improve Ultimate-Guitar.com Take our survey!
×
Author
Difficulty
this is my first tab, so if it sucks tell me but i'm pretty sure it's right.
I Take Drugs - a short song by Murderdolls with a nice riff. its pretty much the same 
over and over again.

ronny choi
stinkycheeseman3@hotmail.com

~
 ~
  ~
   ~ = pick scrape


intro
E--~------------------------------------------------------------------------|
B---~-----------------------------------------------------------------------|
G----~----------------------------------------------------------------------|
D-----~---4--7--9--12-/--2--7--9--12----------------------------------------|
A------~--2--5--7--10-/--4--5--7--10----------------------------------------|
E-------~-------------------------------------------------------------------|

verse
E---------------------------------------------------------------------------|
B---------------------------------------------------------------------------|
G---------------------------------------------------------------------------|
D---------------------------------------------------------------------------|
A--4--4-4-4-4-4-4-7--7-7-7-7-7-7-9--9-9-9-9-9-9-12---/----------------------|
E--2--2-2-2-2-2-2-5--5-5-5-5-5-5-7--7-7-7-7-7-7-10---/----------------------|

E---------------------------------------------------------------------------|
B---------------------------------------------------------------------------|
G---------------------------------------------------------------------------|
D---------------------------------------------------------------------------|
A--4--4-4-4-4-4-4-7--7-7-7-7-7-7-9--9-9-9-9-9-9-12---/----------------------|
E--2--2-2-2-2-2-2-5--5-5-5-5-5-5-7--7-7-7-7-7-7-10---/----------------------|

chorus
E---------------------------------------------------------------------------|
B---------------------------------------------------------------------------|
G---------------------------------------------------------------------------|
D---------4--7--9--12-/--2--7--9--12----------------------------------------|
A---------2--5--7--10-/--4--5--7--10----------------------------------------|
E---------------------------------------------------------------------------|

interlude
E---------------------------------------------------------------------------|
B---------------------------------------------------------------------------|
G--4--4-------4--4-------4--4-------4--4-4-4-4-4----------------------------|
D--4--4--4-2--4--4--4-2--4--4--4-2--4--4-4-4-4-4----------------------------|
A--2--2--4-2--2--2--4-2--2--2--4-2--2--2-2-2-2-2----------------------------|
E--------2-0--------2-0--------2-0------------------------------------------|

play this after the last chorus (outro)
E---------------------------------------------------------------------------|
B---------------------------------------------------------------------------|
G---------------------------------------------------------------------------|
D--4------------------------------------------------------------------------|
A--4------------------------------------------------------------------------|
E--2------------------------------------------------------------------------|


song order:
intro
verse
chorus
verse
chorus
interlude
chorus x2
Suggest correction
Give kudos to tab author, rate the tab!
1 2 3 4 5
comments
print report bad tab
guest
You may want to rate the tab now too:
select rating
Wanna post a correction for this tab? Suggest correction