Oops, an error
Loading. Please wait.

Rock N Roll Is All I Got bass

436 views 1 this week
2 commentsread comments
1 2 3 4 5
2 more votes to show rating
add to favorites
×
Save as Personal and add changes to this tab that will be seen only by you. Learn more ›
×
You can save this tab as Personal to edit and correct it or add notes. All changes will be seen only by you. Learn more »
launch autoscroll
font size
0
reset
guitar tuner
edit
Autoscroll
slow
fast
+/-
esc
set tempo
stop
-------------------------------------------------------------------------------
Rock N Roll Is All I Got - Murderdolls
-------------------------------------------------------------------------------
Tabbed by: ChrisT

From the album: Women And Children Last (2010) 

Tuning: Drop C

Intro                                     Repeat x4
G|-------------------------------------------------|------------------|
D|o-----------------------------------------------o|------------------|
A|o-----------------------------------------------o|------------------|
C|--6-6-5-3-5---5-5-5-5-5---0-0-3-5-0---0-0-0-0-0--|-/12(x16)-\0(x16)-|

                                                    Repeat x2
G|-----------------------------------------------------------|
D|o---------------------------------------------------------o|
A|o---------------------------------------------------------o|
C|--0-0-0-0---3-0--0-0-0-0---3-0--0-0-0-0---3-0---5-5-5-5-5--|

G|-------------------------------------------------------|
D|-------------------------------------------------------|
A|-------------------------------------------------------|
C|--3-3-3-3-3-3-3-3---5-5-5-5-5-5-5-5---6-0-0-0-0-0-0-0--|

G|-------------------------------------------------|
D|-------------------------------------------------|
A|-------------------------------------------------|
C|--3---0-0-0-0-0---6---0-0-0-0-0---3---0-0-0-0-0--|

G|-------------------------------------------|
D|-------------------------------------------|
A|-------------------------------------------|
C|--3-3-3-3-3-3-3-3---2-2-2-2---1-1-1-1-1-1--|

                                  Repeat x2
G|-----------------------------------------|
D|o---------------------------------------o|
A|o---------------------------------------o|
C|--0-0----0-0----0-0-0-0----0-0-0-0---3---|

                                          Repeat x2
G|-------------------------------------------------|------------------|
D|o-----------------------------------------------o|------------------|
A|o-----------------------------------------------o|------------------|
C|--6-6-5-3-5---5-5-5-5-5---0-0-3-5-0---0-0-0-0-0--|-/12(x16)-\0(x16)-|

                                                    Repeat x2
G|-----------------------------------------------------------|
D|o---------------------------------------------------------o|
A|o---------------------------------------------------------o|
C|--0-0-0-0---3-0--0-0-0-0---3-0--0-0-0-0---3-0---5-5-5-5-5--|

G|-------------------------------------------------------|
D|-------------------------------------------------------|
A|-------------------------------------------------------|
C|--3-3-3-3-3-3-3-3---5-5-5-5-5-5-5-5---6-0-0-0-0-0-0-0--|

G|-------------------------------------------------|
D|-------------------------------------------------|
A|-------------------------------------------------|
C|--3---0-0-0-0-0---6---0-0-0-0-0---3---0-0-0-0-0--|

G|-------------------------------------------|
D|-------------------------------------------|
A|-------------------------------------------|
C|--3-3-3-3-3-3-3-3---2-2-2-2---1-1-1-1-1-1--|

G|-----------------------------------------|
D|o---------------------------------------o|
A|o---------------------------------------o|
C|--0-0----0-0----0-0-0-0----0-0-0-0---3---|

Guitar solo                               Repeat x4
G|-------------------------------------------------|-------------|
D|o-----------------------------------------------o|-------------|
A|o-----------------------------------------------o|-------------|
C|--6-6-5-3-5---5-5-5-5-5---0-0-3-5-0---0-0-0-0-0--|-/12(x16)-\0-|

Drums/Vocals

   We live, we breathe, we bleed, rock n roll. We live, we breathe, we bleed,

   Rock n roll.......                                             Repeat x2
G|-------------------------------------------------------------------------|
D|o-----------------------------------------------------------------------o|
A|o-----------------------------------------------------------------------o|
C|--12-12-12-12-12-12\0-0-0-0-0-0-0-0-0-0-0-0-0-0-0-0-0-0-0-0-0-0-0-0-0-0--|

Outro                                     Repeat x8
G|-------------------------------------------------|
D|o-----------------------------------------------o|
A|o-----------------------------------------------o|
C|--6-6-5-3-5---5-5-5-5-5---0-0-3-5-0---0-0-0-0-0--|


Or something like that anyway, give or take a few notes.....
First tab, hope it's ok.

Please rate or comment.....

===============================================================================

            
            
Suggest correction
Creating personal tab
Creating personal tab
You can edit any tab online and save it as your Personal.

You can edit, replace or remove any tab part or add personal notes – all changes will be seen only by you.

Personal tabs can be accessed anytime from any device, even offline.
Learn more »
Give kudos to tab author, rate the tab!
1 2 3 4 5
comments
print report bad tab
2 comments total.
0 reply
ImagineTheThorn 30 Dec 10, 2012 01:58 PM

Not a big Murderdolls fan, are you? "Rock And Roll Is All I Got" is from "Women And Children Last" not "Beyond The Valley Of The Murderdolls"

0 reply
xxxxChrisTxxxx [tm] 10,225 Dec 11, 2012 09:13 AM

Yeah, I knew that - just seeing if anyone would notice ;)

guest
You may want to rate the tab now too:
select rating
Wanna post a correction for this tab? Suggest correction