Oops, an error
Loading. Please wait.

Summertime Suicde Bass Tab

version 2
version 2

Whole song

188 views 1 this week
no commentswrite comment
1 2 3 4 5
please rate
add to favorites
launch autoscroll
font size
0
reset
guitar tuner
Autoscroll
slow
fast
+/-
esc
set tempo
stop
Help us to improve Ultimate-Guitar.com Take our survey!
×
Author
Difficulty
Tuning
intermediate
C G C F A D
-----------------------------------------------------------------------------
                             Summertime Suicide - Murderdolls
-----------------------------------------------------------------------------
Tabbed by: Andu Needle
E-mail: sulfur_in_my_lungs@yahoo.com

Intro:

F|--------------------------------------------------------------------|
C|--------------------------------------------------------------------|
G|-8~--7~--5~-3-1-----------------------------------------------------|
C|--------------------------------------------------------------------|

F|--------------------------------------------------------------------|
C|--------------------------------------------------------------------|
G|-8~--7~-------------------------------------------------------------|
C|--------00000000(x2)------------------------------------------------|

F|--------------------------------------------------------------------|
C|--------------------------------------------------------------------|
G|-------------------------3-1-111111---------------------------------|
C|-3-333333-2-222222-0-000--------------------------------------------|

F|--------------------------------------------------------------------|
C|--------------------------------------------------------------------|
G|--------------------------------------------------------------------|
C|-3-333333-2-222222-00000000(x3)-------------------------------------|

The part before verse:

F|--------------------------------------------------------------------|
C|--------------------------------------------------------------------|
G|--------------------3x3---------------------------------------------|
C|-33333333(x3)-33333-------------------------------------------------|

Verse:

F|--------------------------------------------------------------------|
C|--------------------------------------------------------------------|
G|---------------------------11111111-33333333----------------3x3-----|
C|-33333333(x2)-00000000(x2)-------------------00000000-00000---------|


F|--------------------------------------------------------------------|
C|--------------------------------------------------------------------|
G|---------------------------11111111-33333333---------------5-3------|
C|-33333333(x2)-00000000(x2)-------------------00000000-0000----------|

Pre chorus:

F|--------------------------------------------------------------------|
C|--------------------------------------------------------------------|
G|-11111111-33333333-55555555-55555533-11111111-3---------------------|
C|--------------------------------------------------------------------|

Chorus:

F|--------------------------------------------------------------------|
C|--------------------------------------------------------------------|
G|-8~--7~--5~-3-1-----------------------------------------------------|
C|--------------------------------------------------------------------|(x2)

F|--------------------------------------------------------------------|
C|--------------------------------------------------------------------|
G|-88--77--5~-3-1-----------------------------------------------------|
C|--------------------------------------------------------------------|

F|--------------------------------------------------------------------|
C|--------------------------------------------------------------------|
G|-8~--7~--5~-3-1-----------------------------------------------------|
C|--------------------------------------------------------------------|

After the chorus you go straight into this:

F|--------------------------------------------------------------------|
C|--------------------------------------------------------------------|
G|--------------------------------------------------------------------|
C|-00000000(x3)-------------------------------------------------------|

The break down before verse again.
The second verse is the same.
The second pre chorus is the same.
The second chorus is the same.
After the second chorus you play again those 8 0s for three times.

Solo:

F|--------------------------------------------------------------------|
C|--------------------------------------------------------------------|
G|-8~--7~--5~-3-1-----------------------------------------------------|
C|--------------------------------------------------------------------|(x3)

F|--------------------------------------------------------------------|
C|--------------------------------------------------------------------|
G|-8~--7~-------------------------------------------------------------|
C|--------00000000(x2)------------------------------------------------|

The last chorus is the same as the others.

Ending:

F|--------------------------------------------------------------------|
C|--------------------------------------------------------------------|
G|--------------33333-1-0---------------------------------------------|
C|-00000000(x7)-----------5-3~----------------------------------------|
Suggest correction
Give kudos to tab author, rate the tab!
1 2 3 4 5
comments
print report bad tab
guest
You may want to rate the tab now too:
select rating
Wanna post a correction for this tab? Suggest correction