Oops, an error
Loading. Please wait.

The Funeral Ball Bass Tab

version 1
version 1

Whole song

Interactive

59 views 1 this week
no commentswrite comment
1 2 3 4 5
excellent!
x 3
add to favorites
launch autoscroll
font size
0
reset
guitar tuner
Tab Pro tools
  • play this tab
  • loop segment
  • change instrument
  • show fretboard
  • metronome
Autoscroll
slow
fast
+/-
esc
set tempo
stop
Contributor
Difficulty
Tuning
novice
C G C F A D
-----------------------------------------------------------------------------
                             The Funeral Ball - Murderdolls
-----------------------------------------------------------------------------
Tabbed by: Andu Needle
E-mail: sulfur_in_my_lungs@yahoo.com

Intro:

F|------------------------------------------------------|
C|------------------------------------------------------|
G|-2~---------------------------------------------------|
C|------------------------------------------------------|

F|------------------------------------------------------|
C|------------------------------------------------------|
G|-22222222(x4)-00000000(x4)----------------------------|
C|------------------------------------------------------|

Verse:

F|------------------------------------------------------|
C|------------------------------------------------------|
G|-2~--2~--0~--0~---------------------------------------|
C|------------------------------------------------------|

F|------------------------------------------------------|
C|------------------------------------------------------|
G|-22222222(x4)-00000000(x4)----------------------------|
C|------------------------------------------------------|

Pre chorus:

F|------------------------------------------------------|
C|------------------------------------------------------|
G|-------------------5555-4444--------------------------|
C|-4~-7~-99979999999-----------44444444-4---------------|

Not sure about the -99979999999- part. The rhythm is tricky. The notes are correct.

Main riff again:

F|-------------------------------------------------------|
C|-------------------------------------------------------|
G|-22222222(x4)-00000000(x4)-----------------------------|
C|-------------------------------------------------------|

Second verse as the first!
Pre chorus 2 as the first one!

Chorus:

F|-------------------------------------------------------|
C|-------------------------------------------------------|
G|-22222222(x4)-00000000(x4)-----------------------------|
C|-------------------------------------------------------|(x2)

Solo:

F|-------------------------------------------------------|
C|-------------------------------------------------------|
G|-22222222(x4)-00000000(x4)-----------------------------|
C|-------------------------------------------------------|(x2)

The third pre chorus is as the others!
The chorus is as the others!

Break down:

This part is basically that slide.

F|-------------------------------------------------------|
C|-------------------------------------------------------|
G|-2/14-2~-----------------------------------------------|
C|-------------------------------------------------------|

Last chorus & Ending:

F|-------------------------------------------------------|
C|-------------------------------------------------------|
G|-22222222(x4)-00000000(x4)-----------------------------|
C|-------------------------------------------------------|

Play this part till fade out.
comments
We did not receive enough feedback on this tab! Please rate:
print report bad tab
1 2 3 4 5
I want to post or [tab]
guest
You may want to rate the tab now too:
select rating
Please do not post tabs as comments. Select "correction" instead!