Oops, an error
Loading. Please wait.

Twist My Sister tab

version 4
version 4

Whole song

Interactive

209 views 1 this week
3 commentsread comments
1 2 3 4 5
2 more votes to show rating
add to favorites
×
Save as Personal and add changes to this tab that will be seen only by you. Learn more ›
×
You can save this tab as Personal to edit and correct it or add notes. All changes will be seen only by you. Learn more »
launch autoscroll
font size
0
reset
how to read this tab
guitar tuner
edit
Autoscroll
slow
fast
+/-
esc
set tempo
stop
Author
Riff A:                                This song is quite easy to play.
eb------------------|              There are 2 main riffs. I tried
Bb------------------|              the other tabs for Twist My Sister
Gb------------------|              and they're way off, so I tabbed it
Db--3-3-3--4-4-4-4--|              myself.
Ab--3-3-3--2-2-2-2--|
Eb--1-1-1--2-2-2-2--|               * = slight string bend

Riff B:
eb-----------------------|
Bb-----------------------|
Gb-----------------------|
Db--x-x-x-x--------------|
Ab--4-4-4-4--5-5-5-5-----|
Eb--2-2-2-2--3-3-3-3-----|


                                   (speeds up here)
Solo:                                           *  *  *
eb--11-14-14-15-15-14-14-16-16-16--------------------------------------------|
Bb---------------------------------------------------------------------------|
Gb ---------------------------------19-19-19-19-21-21-21-18-17-18-17-15---20-|
Db---------------------------------------------------------------------------|
Ab---------------------------------------------------------------------------|
Eb---------------------------------------------------------------------------|


Eb---------------------------------------------------------------------------|
Ab---------------------------------------------------------------------------|
Db--19-17-18-19-19-19-19-16---17-17-17-19-19-19-19-18-17-16-14---------------|
Gb---------------------------------------------------------------------------|
Bb---------------------------------------------------------------------------|
eb---------------------------------------------------------------------------|

 Intro= Riff A 4x
 Verses 1= Riff A 6x
 Pre-Chorus= Riff A 2x (speeds up)
 Chorus= Riff B 4x
 Then Riff A 4x with bass solo in background
 Verses 2= Riff A 6x
 Pre-Chorus= Riff A 2x (speeds up)
 Chorus= Riff B 4x
 Solo
 Pre-Chorus= Riff A 2x (speeds up)
 Double Chorus (Riff B 8x)

            
            
Suggest correction
Creating personal tab
Creating personal tab
You can edit any tab online and save it as your Personal.

You can edit, replace or remove any tab part or add personal notes – all changes will be seen only by you.

Personal tabs can be accessed anytime from any device, even offline.
Learn more »
Give kudos to tab author, rate the tab!
1 2 3 4 5
comments
print report bad tab
3 comments total.
0 reply
BroDD 368 Aug 28, 2009 05:51 AM

Murderdolls uses standard tuning.
The riffs here are nowhere near the correct way to play Twist My Sister.

The riffs here don't sound like any riff by Murderdolls that I can think of at the moment.

Are you kidding with this tab?

0 reply
Kurt1964 27,253 Oct 16, 2009 02:30 AM

... I thought this tab was a real good "starting point"... you have to work it a little....but, it rocks!...

0 reply
Sickhick 40 Oct 23, 2009 01:33 AM

Yeah, it was the first time I ever tabbed anything. It's not that good.

As for the tuning, I know Murderdolls uses standard tuning, but at the time, I had tuned my guitar 1/2 step down. So, if you play it in standard, move everything up one fret.

guest
You may want to rate the tab now too:
select rating
Wanna post a correction for this tab? Suggest correction