Oops, an error
Loading. Please wait.

Lujuria Tab

by Muro
100 views 6 this week
no commentswrite comment
1 2 3 4 5
3 more votes to show rating
add to favorites
launch autoscroll
font size
0
reset
how to read this tab
guitar tuner
Autoscroll
slow
fast
+/-
esc
set tempo
stop
Help us to improve Ultimate-Guitar.com Take our survey!
×
 INTRO 1
 Oh oh oh oh oh oh....
|-------------------------------------------------------|
|-------------------------------------------------------|
|-------------------------------------------------------|
|-7--------5---3--------5---7--------5---3--------5-----|
|-5--------3---1--------3---5--------3---1--------3-----|
|-------------------------------------------------------|


 INTRO 2
 Oh oh oh oh oh oh...
|-------------------------------------------------------|
|-------------------------------------------------------|
|-------------------------------------------------------|
|-7------7-------------7-------------7-------------7--5-|
|-5--5-5-5--5-5-5--5-5-5--5-5-5--5-5-5--5-5-5--5-5-5--3-|
|-------------------------------------------------------|
     . .    . . .  . .    . . .  . .    . . .  . .
 Oh oh oh oh oh oh...
|-------------------------------------------------------|
|-------------------------------------------------------|
|-------------------------------------------------------|
|-3------3-------------3-------------3-------------3--5-|
|-1--1-1-1--1-1-1--1-1-1--1-1-1--1-1-1--1-1-1--1-1-1--3-|
|-------------------------------------------------------|
     · ·    · · ·  · ·    · · ·  · ·    · · ·  · ·
 Oh oh oh oh oh oh...
|-------------------------------------------------------|
|-------------------------------------------------------|
|-------------------------------------------------------|
|-7------7-------------7-------------7-------------7--5-|
|-5--5-5-5--5-5-5--5-5-5--5-5-5--5-5-5--5-5-5--5-5-5--3-|
|-------------------------------------------------------|
     · ·    · · ·  · ·    · · ·  · ·    · · ·  · ·
 Oh oh oh oh oh oh...
|-------------------------------------------------------------|
|-------------------------------------------------------------|
|-------------------------------------------------------------|
|-3------3-------------3-------------3-------------3?-5?-7---|
|-1--1-1-1--1-1-1--1-1-1--1-1-1--1-1-1--1-1-1--1-1-1--3--5---|
|-------------------------------------------------------------|
     · ·    · · ·  · ·    · · ·  · ·    · · ·  · ·

 PARTE EN QUE SE CANTA
Era un noche de depresión con la garganta quemada de alcohol
|-------------------------------------------------------------|
|-------------------------------------------------------------|
|-------------------------------------------------------------|
|--7-------------------7---5-----7-------------------7---5----|
|--5-------------------5---3-----5-------------------5---3----|
|-------------------------------------------------------------|

 la cabeza perdida en mas de una obsesión
|-------------------------------------------------------|
|-------------------------------------------------------|
|-------------------------------------------------------|
|-3------3-------------3-------------3-------------3--5-|
|-1--1-1-1--1-1-1--1-1-1--1-1-1--1-1-1--1-1-1--1-1-1--3-|
|-------------------------------------------------------|
     . .    . . .  . .    . . .  . .    . . .  . .

|-------------------------------------------------------|
|-------------------------------------------------------|
|-------------------------------------------------------|
|-7------7-------------7-------------7-------------7--5-|
|-5--5-5-5--5-5-5--5-5-5--5-5-5--5-5-5--5-5-5--5-5-5--3-|
|-------------------------------------------------------|
     . .    . . .  . .    . . .  . .    . . .  . .
 salí de casa empapado en sudor y con la idea fija de olvidar
|-------------------------------------------------------------|
|-------------------------------------------------------------|
|-------------------------------------------------------------|
|--7-------------------7---5-----7-------------------7---5----|
|--5-------------------5---3-----5-------------------5---3----|
|-------------------------------------------------------------|

   y rendirme y reír hasta la extenuación
|-------------------------------------------------------|
|-------------------------------------------------------|
|-------------------------------------------------------|
|-3------3-------------3-------------3-------------3--5-|
|-1--1-1-1--1-1-1--1-1-1--1-1-1--1-1-1--1-1-1--1-1-1--3-|
|-------------------------------------------------------|
     . .    . . .  . .    . . .  . .    . . .  . .

|-------------------------------------------------------|
|-------------------------------------------------------|
|-------------------------------------------------------|
|-7------7-------------7-------------7-------------7--5-|
|-5--5-5-5--5-5-5--5-5-5--5-5-5--5-5-5--5-5-5--5-5-5--3-|
|-------------------------------------------------------|
     . .    . . .  . .    . . .  . .    . . .  . .
   y en el bar la encontré      y se me presentó
|-------------------------------------------------|
|-------------------------------------------------|
|-------------------------------------------------|
|-3-------------5------7------7-------------7---5-|
|-1-------------3------5--5-5-5--5-5-5--5-5-5---3-|
|-------------------------------------------------|

    muy pronto contacté
|-------------------------------------------------|
|-------------------------------------------------|
|-------------------------------------------------|
|-3-------------5------7------7-------------7---5-|
|-1-------------3------5--5-5-5--5-5-5--5-5-5---3-|
|-------------------------------------------------|
                          · ·    · · ·  · ·
  se me insinuó       no tuvo que insistir    nunca dije que noooo
|----------------------------------------------------------------|
|----------------------------------------------------------------|
|----------------------------------------------------------------|
|-3-------------5------7------7-------------7---5---3----------5-|
|-1-------------3------5--5-5-5--5-5-5--5-5-5---3---1----------3-|
|----------------------------------------------------------------|
                          · ·    · · ·  · ·

|-------------------------------------------------------|
|-------------------------------------------------------|
|-------------------------------------------------------|
|-9------9-------------9-------------9---------9-9-9--5-|
|-7--7-7-7--7-7-7--7-7-7--7-7-7--7-7-7--7-7-7--7-7-7--3-|
|-------------------------------------------------------|
     · ·    · · ·  · ·    · · ·  · ·    · · ·

 INTRO 2
 Oh oh oh oh oh oh...
|-------------------------------------------------------|
|-------------------------------------------------------|
|-------------------------------------------------------|
|-7------7-------------7-------------7-------------7--5-|
|-5--5-5-5--5-5-5--5-5-5--5-5-5--5-5-5--5-5-5--5-5-5--3-|
|-------------------------------------------------------|
     . .    . . .  . .    . . .  . .    . . .  . .
 Oh oh oh oh oh oh...
|-------------------------------------------------------|
|-------------------------------------------------------|
|-------------------------------------------------------|
|-3------3-------------3-------------3-------------3--5-|
|-1--1-1-1--1-1-1--1-1-1--1-1-1--1-1-1--1-1-1--1-1-1--3-|
|-------------------------------------------------------|
     . .    . . .  . .    . . .  . .    . . .  . .
 Oh oh oh oh oh oh...
|-------------------------------------------------------|
|-------------------------------------------------------|
|-------------------------------------------------------|
|-7------7-------------7-------------7-------------7--5-|
|-5--5-5-5--5-5-5--5-5-5--5-5-5--5-5-5--5-5-5--5-5-5--3-|
|-------------------------------------------------------|
     . .    . . .  . .    . . .  . .    . . .  . .
 Oh oh oh oh oh oh...
|-------------------------------------------------------------|
|-------------------------------------------------------------|
|-------------------------------------------------------------|
|-3------3-------------3-------------3-------------3?-5?-7---|
|-1--1-1-1--1-1-1--1-1-1--1-1-1--1-1-1--1-1-1--1-1-1--3--5---|
|-------------------------------------------------------------|
     . .    . . .  . .    . . .  . .    . . .  . .

 ACOMPAÑAMIENTO DEL SOLO
|-------------------------------------------------------|
|-------------------------------------------------------|
|-------------------------------------------------------|
|-7------7-------------7-------------7-------------7--5-|
|-5--5-5-5--5-5-5--5-5-5--5-5-5--5-5-5--5-5-5--5-5-5--3-|
|-------------------------------------------------------|
     . .    . . .  . .    . . .  . .    . . .  . .

|-------------------------------------------------------|
|-------------------------------------------------------|
|-------------------------------------------------------|
|-3------3-------------3-------------3-------------3--5-|
|-1--1-1-1--1-1-1--1-1-1--1-1-1--1-1-1--1-1-1--1-1-1--3-|
|-------------------------------------------------------|
     . .    . . .  . .    . . .  . .    . . .  . .

|-------------------------------------------------------|
|-------------------------------------------------------|
|-------------------------------------------------------|
|-7------7-------------7-------------7-------------7--5-|
|-5--5-5-5--5-5-5--5-5-5--5-5-5--5-5-5--5-5-5--5-5-5--3-|
|-------------------------------------------------------|
     . .    . . .  . .    . . .  . .    . . .  . .

|-------------------------------------------------------|
|-------------------------------------------------------|
|-------------------------------------------------------|
|-3------3-------------3-------------3-------------3?-5?|
|-1--1-1-1--1-1-1--1-1-1--1-1-1--1-1-1--1-1-1--1-1-1--3-|
|-------------------------------------------------------|
     . .    . . .  . .    . . .  . .    . . .  . .

 PARTE EN QUE SE CANTA
 Y la noche pasó      mejor no pudo ser
|-------------------------------------------------|
|-------------------------------------------------|
|-------------------------------------------------|
|-3-------------5------7------7-------------7---5-|
|-1-------------3------5--5-5-5--5-5-5--5-5-5---3-|
|-------------------------------------------------|
                          · ·    · · ·  · ·
 en mi habitación
|-------------------------------------------------|
|-------------------------------------------------|
|-------------------------------------------------|
|-3-------------5------7------7-------------7---5-|
|-1-------------3------5--5-5-5--5-5-5--5-5-5---3-|
|-------------------------------------------------|
                          · ·    · · ·  · ·
  y lujuria se fue   no dejó dirección    no la volveré a veeeeer
|----------------------------------------------------------------|
|----------------------------------------------------------------|
|----------------------------------------------------------------|
|-3-------------5------7------7-------------7---5---3----------5-|
|-1-------------3------5--5-5-5--5-5-5--5-5-5---3---1----------3-|
|----------------------------------------------------------------|
                          · ·    · · ·  · ·

|-------------------------------------------------------|
|-------------------------------------------------------|
|-------------------------------------------------------|
|-9------9-------------9-------------9---------9-9-9--5-|
|-7--7-7-7--7-7-7--7-7-7--7-7-7--7-7-7--7-7-7--7-7-7--3-|
|-------------------------------------------------------|
     . .    . . .  . .    . . .  . .    . . .


INTRO 2
 Oh oh oh oh oh oh...
|-------------------------------------------------------|
|-------------------------------------------------------|
|-------------------------------------------------------|
|-7------7-------------7-------------7-------------7--5-|
|-5--5-5-5--5-5-5--5-5-5--5-5-5--5-5-5--5-5-5--5-5-5--3-|
|-------------------------------------------------------|
     . .    . . .  . .    . . .  . .    . . .  . .
 Oh oh oh oh oh oh...
|-------------------------------------------------------|
|-------------------------------------------------------|
|-------------------------------------------------------|
|-3------3-------------3-------------3-------------3--5-|
|-1--1-1-1--1-1-1--1-1-1--1-1-1--1-1-1--1-1-1--1-1-1--3-|
|-------------------------------------------------------|
     . .    . . .  . .    . . .  . .    . . .  . .
 Oh oh oh oh oh oh...
|-------------------------------------------------------|
|-------------------------------------------------------|
|-------------------------------------------------------|
|-7------7-------------7-------------7-------------7--5-|
|-5--5-5-5--5-5-5--5-5-5--5-5-5--5-5-5--5-5-5--5-5-5--3-|
|-------------------------------------------------------|
     . .    . . .  . .    . . .  . .    . . .  . .
 Oh oh oh oh oh oh...
|-------------------------------------------------------|
|-------------------------------------------------------|
|-------------------------------------------------------|
|-3------3-------------3-------------3-------------3?-5?|
|-1--1-1-1--1-1-1--1-1-1--1-1-1--1-1-1--1-1-1--1-1-1--3-|
|-------------------------------------------------------|
     . .    . . .  . .    . . .  . .    . . .  . .

 INTRO 1
 Oh oh oh oh oh oh....
|-------------------------------------------------------|
|-------------------------------------------------------|
|-------------------------------------------------------|
|-7--------5---3--------5---7--------5---3--------5-----|
|-5--------3---1--------3---5--------3---1--------3-----|
|-------------------------------------------------------|


INTRO 2
                                     En mi habitación
|-------------------------------------------------------|
|-------------------------------------------------------|
|-------------------------------------------------------|
|-7------7-------------7-------------7-------------7--5-|
|-5--5-5-5--5-5-5--5-5-5--5-5-5--5-5-5--5-5-5--5-5-5--3-|
|-------------------------------------------------------|
     . .    . . .  . .    . . .  . .    . . .  . .
                                   llenos de satisfacción
|-------------------------------------------------------|
|-------------------------------------------------------|
|-------------------------------------------------------|
|-3------3-------------3-------------3-------------3--5-|
|-1--1-1-1--1-1-1--1-1-1--1-1-1--1-1-1--1-1-1--1-1-1--3-|
|-------------------------------------------------------|
     . .    . . .  . .    . . .  . .    . . .  . .
                                    quiero volverla a ver
|-------------------------------------------------------|
|-------------------------------------------------------|
|-------------------------------------------------------|
|-7------7-------------7-------------7-------------7--5-|
|-5--5-5-5--5-5-5--5-5-5--5-5-5--5-5-5--5-5-5--5-5-5--3-|
|-------------------------------------------------------|
     . .    . . .  . .    . . .  . .    . . .  . .
                                    y disfrutar otra vez
|-------------------------------------------------------|
|-------------------------------------------------------|
|-------------------------------------------------------|
|-3------3-------------3-------------3-------------3?-5?|
|-1--1-1-1--1-1-1--1-1-1--1-1-1--1-1-1--1-1-1--1-1-1--3-|
|-------------------------------------------------------|
     . .    . . .  . .    . . .  . .    . . .  . .
   toda   la   depresión   con   lujuria   se   pasó
|-------------------------------------------------------|
|-------------------------------------------------------|
|-------------------------------------------------------|
|-7------7------7------7------7------7------7------7----|
|-5--5-5-5--5-5-5--5-5-5--5-5-5--5-5-5--5-5-5--5-5-5----|
|-------------------------------------------------------|
     . .    . .    . .    . .    . .    . .    . .
  si  otra vez  quiere  mas   eso  me   ayudaraaaaaaaaaa
|-------------------------------------------------------|
|-------------------------------------------------------|
|-------------------------------------------------------|
|-7------7------7------7------7------7------7------7----|
|-5--5-5-5--5-5-5--5-5-5--5-5-5--5-5-5--5-5-5--5-5-5----|
|-------------------------------------------------------|
     . .    . .    . .    . .    . .    . .    . .
Suggest correction
Give kudos to tab author, rate the tab!
1 2 3 4 5
comments
print report bad tab
guest
You may want to rate the tab now too:
select rating
Wanna post a correction for this tab? Suggest correction