Oops, an error
Loading. Please wait.

Doomsday tab

version 2
version 2

Whole song

Interactive

1,272 views 12 this week
1 commentread comment
1 2 3 4 5
1 last vote to show rating
add to favorites
×
Save as Personal and add changes to this tab that will be seen only by you. Learn more ›
×
You can save this tab as Personal to edit and correct it or add notes. All changes will be seen only by you. Learn more »
launch autoscroll
font size
0
reset
how to read this tab
guitar tuner
edit
Autoscroll
slow
fast
+/-
esc
set tempo
stop
Difficulty
intermediate
Doctor Who - Doomsday - Murray Gold

So this is my glorious first tab - I just had to pick the one with three seperate guitars.

Here's a video I used to tab it out (https://www.youtube.com/watch?v=3Cqb65w_Vgo)
If you are struggling with the timing it is worth looking here.


Guitar I (Bass Line)

Riff I (Starts at beginning of song)


E|-----------------------------------|
B|-----------------------------------|
G|-----------------------------------|    
D|-3------6------11------8-----10----|         X2
A|-3-x16--6-x16--11-x16--8-x8--10-x8-|
E|-1------4------9-------6-----8-----|

Riff II

E|----------------------------------------------|
B|----------------------------------------------|
G|----------------------------------------------|
D|-13-----11------10------6------8------10------|       x1
A|-13-x8--11-x16--10-x24--6-x16--8-x16--10-x49--|
E|-11-----9-------8-------4------6------8-------|


Riff I

E|-----------------------------------|
B|-----------------------------------|
G|-----------------------------------|    
D|-3------6------11------8-----10----|         X1
A|-3-x16--6-x16--11-x16--8-x8--10-x8-|
E|-1------4------9-------6-----8-----|


Riff II

E|----------------------------------------------|
B|----------------------------------------------|
G|----------------------------------------------|
D|-13-----11------10------6------8------10------|       x1
A|-13-x8--11-x16--10-x24--6-x16--8-x16--10-x49--|
E|-11-----9-------8-------4------6------8-------|


Riff I+

E|-------------------------------------------------------|
B|-------------------------------------------------------|
G|------------------------------------------------10-----|
D|------------------------------------------------10-x1--|      x1
A|------------------------------------------------8------|
E|-1-x16--4-x16--9-x16--6-x8--8-x8--6-x16--9-x17---------|


Riff I

E|-----------------------------------|
B|-----------------------------------|
G|-----------------------------------|
D|----------------------------10-----|          x1
A|----------------------------10-----|
E|-1-x16--4-x16--9-x16--6-x8--8--x8--|


Riff II

E|---------------------------------------------|
B|---------------------------------------------|
G|---------------------------------------------|
D|-----------------------6------8------10------|
A|-----------------------6-x16--8-x16--10-x32--|
E|-11-x16--9-x16--8-x16--4------6------8-------|



Riff I

E|-----------------------------------|
B|-----------------------------------|
G|-----------------------------------|    
D|-3------6------11------8-----10----|         X1
A|-3-x16--6-x16--11-x16--8-x8--10-x8-|
E|-1------4------9-------6-----8-----|


Riff II

E|----------------------------------------------|
B|----------------------------------------------|
G|----------------------------------------------|
D|-13-----11------10------6------8------10------|       x1
A|-13-x8--11-x16--10-x24--6-x16--8-x16--10-x49--|
E|-11-----9-------8-------4------6------8-------|



Guitar II (Lead)

Riff I (Starts Riff II of Guitar III)

E|-8-6-4-3-4-3-0-1-----1-3-----1-3-4-6-4-8-6-4-3-4-3-1-3-0-------------8-9-6-8--11-12-8-6-4-3--(1)--|
B|------------------1------5-4-----------------------------1-1-2-1-0-1------------------------------|
G|--------------------------------------------------------------------------------------------------|
D|--------------------------------------------------------------------------------------------------|   x2 
A|--------------------------------------------------------------------------------------------------| 
E|--------------------------------------------------------------------------------------------------|


Riff II (Starts at Guitar I's I+)

E|----------------------------------------------------------------------------------------------------------|
B|----------------------------------------------------------------------------------------------------------|
G|----------------------------------------------------------------------------------------------------------|
D|----------------------------------------------------------------------------------------------------------|
A|-4--3-3---4--3-3---4--3-3---4--3------4--3-3---4--3-3---6--3-3---4--3------4--3-3---6--3-3---8--3-3---4--3|
E|--------------------------------------------------------------------------1-------------------------------|

E|---------------------------------------------------------------|
B|---------------------------------------------------------------|
G|---------------------------------------------------------------|
D|---------------------6--5-5---6--5-5---8--5-5---8--5-5--6--8-8-|
A|---4--3-3---6--3-3---------------------------------------------|
E|-1-------------------------------------------------------------|

E|-------------------------------------------------------------------|
B|----------------------------------------------5---9--8-8---9--8-8--|
G|-------------------------|-----------------------------------------|
D|-6--5-5---10--5-5---10--5-5---11-5-5--11--5-5----------------------|
A|-------------------------------------------------------------------|
E|-------------------------------------------------------------------|


Riff III

E|----------------------------------------------------------------------------------------------------------|
B|----------------------------------------------------------------------------------------------------------|
G|----------------------------------------------------------------------------------------------------------|
D|----------------------------------------------------------------------------------------------------------|
A|-8-8-8-8-8-11-8-11-8--8--8-11-8-11---8-8-8-8-8-11-8-11-8-8-8-8-8-11-8-11-8-8-8-8-8-11-8-11-8-8-8-8-8-11-8-|
E|----------------------------------------------------------------------------------------------------------|

E|---------------------------------|
B|---------------------------------|
G|---------------------------------|
D|---------------------------------|
A|-11-8-8-8--8-13-8-13-8--7-7-7-7--|
E|---------------------------------|


Riff IV

E|----------------------------------------------------------------------------------------------------------|
B|----------------------------------------------------------------------------------------------------------|
G|----------------------------------------------------------------------------------------------------------|
D|----------------------------------------------------------------------------------------------------------|
A|----------------------------------------------------------------------7-7-7--13-10-11-13-10-11-13-15-10-11|
E|-11-11-11-11-9-9-11-11-9-9-9-9-9-9-9-11-9-9-9-9-9-9-9-8-8-8-8-8-8-8---------------------------------------|

E|----------------|
B|----------------|
G|----------------|
D|----------------|
A|-13-15-10-11-13-|
E|----------------|

Riff V

E|--------------------------------------------------------------------------------|
B|--------------------------------------------------------------------------------|
G|-12----12----12----12----12----12----13-12----13-12----13-12----13-12----13-12--|
D|---10----10----10----10----10----10-------10-------10-------10-------10---------|
A|--------------------------------------------------------------------------------|
E|--------------------------------------------------------------------------------|

E|-------------------------------------------------------------------------------------|
B|-------------------------------------------------------------------------------------|
G|-13-12--13-12--13-12--13-12--13-12--13-12--13-12--13-12--13-12--13-12--13-12--13-12--|
D|-------------------------------------------------------------------------------------|
A|-------------------------------------------------------------------------------------|
E|-------------------------------------------------------------------------------------|


Riff I 

E|-8-6-4-3-4-3-0-1-----1-3-----1-3-4-6-4-8-6-4-3-4-3-1-3-0-------------8-9-6-8--11-12-8-6-4-3-1------|
B|------------------1------5-4-----------------------------1-1-2-1-0-1-------------------------------|
G|---------------------------------------------------------------------------------------------------|
D|---------------------------------------------------------------------------------------------------|  
A|---------------------------------------------------------------------------------------------------| 
E|---------------------------------------------------------------------------------------------------|


Guitar III (Rhythm)


Riff I (Starts at beginning of song)

E|-13----|
B|-------| 
G|-10----|      x(how much you need)
D|-------|      
A|-------|
E|-------|


Riff II

E|---13--13----|
B|-------------|
G|-10--10------|
D|-------------|        x(how much you need)
A|-------------|
E|-------------|


Riff III

E|---13------13------|
B|-------------------|
G|-10--10--10--10----|
D|-------------------|  x(how much you need)
A|-------------------|
E|-------------------|


Riff IV 

E|---13-----12------13------15------16----18--18---20--20----|
B|-----------------------------------------------------------|
G|-10--10--9--9---10--10--12--12--13--13----15------17-------|
D|-----------------------------------------------------------|
A|-----------------------------------------------------------|
E|-----------------------------------------------------------|


Riff III

E|---13------13------|
B|-------------------|
G|-10--10--10--10----|
D|-------------------|  x(how much you need)
A|-------------------|
E|-------------------|


Riff IV 

E|---13-----12------13------15------16------18------20------22----------------------15------16------18----|
B|--------------------------------------------------------------------------------------------------------|
G|-10--10--9--9---10--10--12--12--13--13--15--15--17--17--19--19--21--21--23--23--12--12--13--13--15--15--|
D|--------------------------------------------------------------------------------------------------------|
A|--------------------------------------------------------------------------------------------------------|
E|--------------------------------------------------------------------------------------------------------|


E|-8--------------|
B|-5-5-5-5-5-5....|
G|----------------|
D|----------------|
A|----------------|
E|----------------|


Riff V (Starts at the end of I's I+)

E|-13-----|
B|--------|
G|-10-x1--|
D|--------|
A|--------|
E|--------|


Riff VI (Starts when I's third riff II goes into power chords)

E|--------------------------------------|
B|--------------------------------------|
G|--------------------------------------|
D|-6-6....--8....8-8---10....-14....17--|
A|--------------------------------------|
E|--------------------------------------|


Riff VII

E|---------------------------------------------------------------------------------------------|
B|---------------------------------------------------------------------------------------------|
G|-10-10-10.....--------------------------6-6-6-6.....5-5-5-5-6-6-6-6--8-8-8-8....10-10-10-10--|
D|--------------3-3-3-3-3....1-1-1-1......-----------------------------------------------------|
A|---------------------------------------------------------------------------------------------|
E|---------------------------------------------------------------------------------------------|

E|-------------------------------------------------------------------------------------------|
B|-------------------------------------------------------------------------------------------|
G|-9-9-9-9--10-10-10--10-10-10---------------------------------------------------------------|
D|-----------------------------5-5-5-5-6-6-6-6--8-8-8-8....6-6-6-6-5-5-5-5-6-6-5-5-6-6-8-8---|
A|-------------------------------------------------------------------------------------------|
E|-------------------------------------------------------------------------------------------|

E|------------------------------------------------------------------------------------------|
B|------------------------------------------------------------------------------------------|
G|-5-5-5--5-5-5....10-10-10.....12-12-12....13-13-13-13-12-12-13-13-15-15-15-15-12-12-15-15-|
D|------------------------------------------------------------------------------------------|
A|------------------------------------------------------------------------------------------|
E|------------------------------------------------------------------------------------------|

E|--------------------------------------------------------------|
B|--------------------------------------------------------------|
G|--------------------------------------------------------------|
D|-10-10-10....3-3-3-3-5-5-5-5-6-6-6-6-8-8-8-8--10-10-10......--|
A|--------------------------------------------------------------|
E|--------------------------------------------------------------|

Suggest correction
Creating personal tab
Creating personal tab
You can edit any tab online and save it as your Personal.

You can edit, replace or remove any tab part or add personal notes – all changes will be seen only by you.

Personal tabs can be accessed anytime from any device, even offline.
Learn more »
Give kudos to tab author, rate the tab!
1 2 3 4 5
comments
print report bad tab
1 comment total.
0 reply
ajayskaraoked1 10 Mar 02, 2017 07:24 PM

This is really good.. Thank you.

guest
Wanna post a correction for this tab? Suggest correction