Oops, an error
Loading. Please wait.

Gallifrey Theme Acoustic bass

238 views 3 this week
no commentswrite comment
1 2 3 4 5
3 more votes to show rating
add to favorites
×
Save as Personal and add changes to this tab that will be seen only by you. Learn more ›
×
You can save this tab as Personal to edit and correct it or add notes. All changes will be seen only by you. Learn more »
launch autoscroll
font size
0
reset
guitar tuner
edit
Autoscroll
slow
fast
+/-
esc
set tempo
stop
Author
Difficulty
About this tab version
Its for bass guitar. Can be played for multiple variations of the song. Only one available. Was this info helpful? Yes No
[------------------]
[--Gallifrey_Theme-]
[------------------]
by Dave, Done by ear. Taken from (https://www.youtube.com/watch?v=zyuLqioU_3A)
I have re-tabbed this on 02/07/2017 so that it can be followed easier. With minute corections.

[Intro]0:12

(new first line)
G|-----------------|------------------|----------|------------|---------------|--------------|------------|
D|-----------------|------------------|----------|-5--9--5--5-|-7--9--9--5--5-|-5-5--7--5--4-|-5--7--5--4-|
A|-7---7--9--10--5-|-10-10--12--10--9-|-10--9--7-|------------|---------------|--------------|------------|
E|-----------------|------------------|----------|------------|---------------|--------------|------------|

G|-10--12--10--10-|-11--12--12--10--10-|-10--10--12--10--9-|--10--10--12--9--7-|
D|----------------|--------------------|-------------------|-------------------|
A|----------------|--------------------|-------------------|-------------------|
E|----------------|--------------------|-------------------|-------------------|

G|-10--12--10--10-|-11--12--12--10--10-|-10--10--12--10--9-|-9--10--9--7-|
D|----------------|--------------------|-------------------|-------------|
A|----------------|--------------------|-------------------|-------------|
E|----------------|--------------------|-------------------|-------------|

[Outro]0:58

G|-9-7-9-7-9-7-|
D|-------------|
A|-------------|
E|-------------|

__________________________________________________________________________________________________________
There are now lots of variations to this song which you can try out from this. The first part is generally 
all played the same.

            
            
Suggest correction
Creating personal tab
Creating personal tab
You can edit any tab online and save it as your Personal.

You can edit, replace or remove any tab part or add personal notes – all changes will be seen only by you.

Personal tabs can be accessed anytime from any device, even offline.
Learn more »
Give kudos to tab author, rate the tab!
1 2 3 4 5
comments
print report bad tab
guest
You may want to rate the tab now too:
select rating
Wanna post a correction for this tab? Suggest correction