Oops, an error
Loading. Please wait.

A Crying Shame Bass Tab

version 1
version 1

Whole song

Interactive

by Muse
5,080 views 1 this week
no commentswrite comment
1 2 3 4 5
accurate
x 5
add to favorites
launch autoscroll
font size
0
reset
guitar tuner
Autoscroll
slow
fast
+/-
esc
set tempo
stop
Help us to improve Ultimate-Guitar.com Take our survey!
×
Difficulty
novice
Song		: Crying Shame
Artist		: Muse
Tuning		: Standard
Tabbed by	: Iqbal Adiyat (gwantenx@yahoo.co.id)

This tab isn’t 100% accurate, but I think it sounds similar. Have a try! Listen to the 
for accurate timing for each notes.

/ : slide-up
\ : slide-down

Intro:

G|--------4--------------4------------------5-7--------9-9-7-7--|
D|------4---0-2-4------4---0-2-4------5-7-7----------9----------|
A|-2-2------------2-2------------0-0------------7-7-------------|
E|--------------------------------------------------------------|

G|--------4--------------4------------------5-7--------9-9-7-7--|
D|------4---0-2-4------4---0-2-4------5-7-7----------9----------|
A|-2-2------------2-2------------0-0------------7-7-------------|
E|--------------------------------------------------------------|

Verse:

Join guitar at 9th bar, play as needed.

G|-----------7---------------7---7|
D|-9-9-7-8-9---9-7-9-9-7-8-9---9--|
A|--------------------------------|
E|--------------------------------|

G|-9-9-7-8-9-/11\9-7-9-9-7-8-9-/11\9-7|
D|------------------------------------|
A|------------------------------------|
E|------------------------------------|

Bridge:

G|-------------------------------|
D|-7----5----9----5----\---------| listen to the song for accurate timing
A|-------------------------------|
E|-------------------------------|

Chorus:

G|-------------------------------|
D|-0----9------------------------| listen to the song for accurate timing
A|-----------2----0----//12\-1---|
E|-------------------------------|

Intro
Verse(play at 1st bar, play as needed)


Bridge:

G|-------------------------------|
D|-7----5----9----5----/12\------| listen to the song for accurate timing
A|-------------------------------|
E|-------------------------------|

Chorus:

G|-------------------------------|
D|-0----9------------------------| listen to the song for accurate timing
A|-----------2----0----//12------|
E|-------------------------------|

Post Chorus:

G|---------------------------------|
D|-0--7789--/12\\-/7\--------------| listen to the song for accurate timing
A|--------------------2----0--/12-1|
E|---------------------------------|

Outro:

G|--------4--------------4------------------5-7--------9-9-7-7--|
D|------4---0-2-4------4---0-2-4------5-7-7----------9----------|
A|-2-2------------2-2------------0-0------------7-7-------------|
E|--------------------------------------------------------------|

G|--------4--------------4------------------5-7--------9-9-7-7--|
D|------4---0-2-4------4---0-2-4------5-7-7----------9----------|
A|-2-2------------2-2------------0-0------------7-7-------------|
E|--------------------------------------------------------------|

G|------|
D|-9-9-\|
A|------|
E|------|

That’s it, pretty easy to play. Any feedback, mail me.
Suggest correction
comments
print report bad tab
guest
You may want to rate the tab now too:
select rating
Wanna post a correction for this tab? Suggest correction