Oops, an error
Loading. Please wait.

A Crying Shame Tab

version 1
version 1

Whole song

Interactive

by Muse
33,405 views 36 this week
3 commentsread comments
1 2 3 4 5
x 12
add to favorites
launch autoscroll
font size
0
reset
how to read this tab
guitar tuner
Autoscroll
slow
fast
+/-
esc
set tempo
stop
Help us to improve Ultimate-Guitar.com Take our survey!
×
Author
Tuning: Standard

[Intro]
e|----------------------------------|
B|7-----------------5-------9-------|
G|8-----------------6-------9-------|
D|9-----------------7-------9-------|
A|9-----------------7-------7-------|
E|7-----------------5---------------|

[Riff A] (x2)
(repeated throughout the song)
e|-------------------------------------------------------------------------|
B|3/0-88776655-3-0-3/0-88776655-3-0-----88776655-3-0-3/0-77-88-10-10-8877--|
G|----------------------------------6/3------------------------------------|
D|-------------------------------------------------------------------------|
A|-------------------------------------------------------------------------|
E|-------------------------------------------------------------------------|

[Riff B]
(repeated throughout the song)
e|----------------------------------------------------------------|
B|----------------------------------------------------------------|
G|----------------------------------------------------------------|
D|----------------------------------------------------------------|
A|----------5---------------5---------------5---------------5-----|
E|7-7-5-6-7---7-5-7-7-5-6-7---7-5-7-7-5-6-7---7-5-7-7-5-6-7---7-5-|

[Verse] (x2)
e|----------------------------------------------------------------|
B|----------------------------------------------------------------|
G|----------------------------------------------------------------|
D|----------------------------------------------------------------|
A|----------5---------------5-----7-7-5-6-7-8-7-5-7-7-5-6-7-8-7-5-|
E|7-7-5-6-7---7-5-7-7-5-6-7---7-5---------------------------------|

[Pre-Chorus]
e|-----------------------------------------|
B|-----------------------------------------|
G|----7--6-7----7--6-7----7--6-7-----7-6-7-|
D|--7---------7----------------------------|
A|5---------5-----------5----------5-------|
E|--------------------3----------3---------|

e|-----------------------------------------|
B|-----3-2-3-----3-2-3---------------------|
G|-------------------------7-6-7---8b---7--|
D|--4----------4---------------------------|
A|2----------2-----------5-----------------|
E|---------------------3-------------------|

[Chorus]
e|----------------------------------------------|
B|----------------------------------------------|
G|77-777-777-777-7------------------------------|
D|77-777-777-777-7-12---------------------------|
A|55-555-555-555-5-9----------------------------|(same rhythm as D chords)
E|-----------------7----------------------------|

e|--------------------------------|
B|--------------------------------|
G|--------------------------------|
D|99-999-999-999-9-77-777-777-777-|
A|99-999-999-999-9-77-777-777-777-|
E|77-777-777-777-7-55-555-555-555-|

[Chorus End]
E|-------|
B|-------|
G|-------|
D|77777-8|
A|77777-8|
E|55555-6|

[Riff A] (x2)
(repeated throughout the song)
e|-------------------------------------------------------------------------|
B|3/0-88776655-3-0-3/0-88776655-3-0-----88776655-3-0-3/0-77-88-10-10-8877--|
G|----------------------------------6/3------------------------------------|
D|-------------------------------------------------------------------------|
A|-------------------------------------------------------------------------|
E|-------------------------------------------------------------------------|

[Riff B]
(repeated throughout the song)
e|----------------------------------------------------------------|
B|----------------------------------------------------------------|
G|----------------------------------------------------------------|
D|----------------------------------------------------------------|
A|----------5---------------5---------------5---------------5-----|
E|7-7-5-6-7---7-5-7-7-5-6-7---7-5-7-7-5-6-7---7-5-7-7-5-6-7---7-5-|

[Riff C]
e|-----------------|
B|7-----7-7-7-7-7--|
G|9b----9b9b9b9b9b-|
D|-----------------|
A|-----------------|
E|-----------------|

[Verse] (x2)
e|----------------------------------------------------------------|
B|----------------------------------------------------------------|
G|----------------------------------------------------------------|
D|----------------------------------------------------------------|
A|----------5---------------5-----7-7-5-6-7-8-7-5-7-7-5-6-7-8-7-5-|
E|7-7-5-6-7---7-5-7-7-5-6-7---7-5---------------------------------|

[Pre-Chorus]
e|-----------------------------------------|
B|-----------------------------------------|
G|----7--6-7----7--6-7----7--6-7-----7-6-7-|
D|--7---------7----------------------------|
A|5---------5-----------5----------5-------|
E|--------------------3----------3---------|

e|-----------------------------------------|
B|-----3-2-3-----3-2-3---------------------|
G|-------------------------7-6-7---8b---7--|
D|--4----------4---------------------------|
A|2----------2-----------5-----------------|
E|---------------------3-------------------|

[Chorus]
e|----------------------------------------------|
B|----------------------------------------------|
G|77-777-777-777-7------------------------------|
D|77-777-777-777-7-12---------------------------|
A|55-555-555-555-5-9----------------------------|(same rhythm as D chords)
E|-----------------7----------------------------|

e|--------------------------------|
B|--------------------------------|
G|--------------------------------|
D|99-999-999-999-9-77-777-777-777-|
A|99-999-999-999-9-77-777-777-777-|
E|77-777-777-777-7-55-555-555-555-|


[Chorus End]
E|-------|
B|-------|
G|-------|
D|77777-8|
A|77777-8|
E|55555-6|

[Riff A] (x2)
(repeated throughout the song)
e|-------------------------------------------------------------------------|
B|3/0-88776655-3-0-3/0-88776655-3-0-----88776655-3-0-3/0-77-88-10-10-8877--|
G|----------------------------------6/3------------------------------------|
D|-------------------------------------------------------------------------|
A|-------------------------------------------------------------------------|
E|-------------------------------------------------------------------------|


************************************

| /  Slide up
| b  Bend

************************************
Suggest correction
comments
print report bad tab
3 comments total.
-1 reply
wiljones 10 Feb 14, 2008 01:12 PM

thats an awesome tab, cheers

although, i think the first two chords may be minor instead of the major that is written and vise versa for the third

0 reply
edgeyyz 30 May 21, 2009 08:14 PM

sound pretty good, kudos!

0 reply
Erska96 20 Aug 26, 2010 02:13 PM

thx dude good tabs. but VEry hard to play :D

guest
You may want to rate the tab now too:
select rating
Wanna post a correction for this tab? Suggest correction