Oops, an error
Loading. Please wait.

A Crying Shame Bass Tab

version 4
version 4

Whole song

Interactive

by Muse
3,272 views 3 this week
no commentswrite comment
1 2 3 4 5
please rate
add to favorites
launch autoscroll
font size
0
reset
guitar tuner
Autoscroll
slow
fast
+/-
esc
set tempo
stop
Help us to improve Ultimate-Guitar.com Take our survey!
×
Author
Difficulty
novice
[INTRO]
G|--------7-------|--------7-------|--------------6-|--------9-9-7-6-|
D|----------------|----------------|--------7-7-9---|------9---------|
A|------9---7-8-9-|------9---7-8-9-|9-9---9---------|7-7-------------|
E|7-7-------------|7-7-------------|----------------|----------------|

+guitar riff+
G|--------7-------|--------7-------|--------------6-|--------9-9-7-6-|
D|----------------|----------------|--------7-7-9---|------9---------|
A|------9---7-8-9-|------9---7-8-9-|9-9---9---------|7-7-------------| x2
E|7-7-------------|7-7-------------|----------------|----------------|


[VERSE]
G|----------------|----------------|----------------|----------------|
D|----------------|----------------|----------------|----------------|
A|----------------|----------------|----------------|----------------|
E|----------------|----------------|----------------|----------------|

  "Too late!....       ... Yeah baby it's 
G|------------------------|------------------------| |
D|---------------12-------|---------------12-------| |
A|14-14-12-13-14----14-12-|14-14-12-13-14----14-12-| |
E|------------------------|------------------------| |
 > x2
  too late... |
G|---------------12-------|---------------12-------| |
D|14-14-12-13-14----14-12-|14-14-12-13-14----14-12-| |
A|------------------------|------------------------| |
E|------------------------|------------------------| |


[BRIDGE]
"We had a dream..."
G|----------------|----------------|----------------|----------------|
D|7-7-7-7-7-7-7-7-|7-7-7-7-7-7-7-7-|5-5-5-5-5-5-5-5-|5-5-5-5-5-5-5-5-|
A|----------------|----------------|----------------|----------------|
E|----------------|----------------|----------------|----------------|

                                              "... and it's a crying...
G|4-4-4-4-4-4-4-4-|4-4-4-4-4-4-4-4-|----------------|----------------|
D|----------------|----------------|5-5-5-5-5-5-5-5-|5-5-5-5-5-5-5-5-|
A|----------------|----------------|----------------|----------------|
E|----------------|----------------|----------------|----------------|


[CHORUS]
...shame!"
G|----------------|----------------|----------------|----------------|
D|----------------|----------------|----------------|----------------|
A|5-5-5-5-5-5-5-5-|5-5-5-5-5-5-5-5-|----------------|----------------|
E|----------------|----------------|7-7-7-7-7-7-7-7-|7-7-7-7-7-7-7-7-|

G|----------------|----------------|----------------|----------------|
D|----------------|----------------|----------------|7-7-7-7-7-------|
A|----------------|----------------|----------------|----------------|
E|7-7-7-7-7-7-7-7-|7-7-7-7-7-7-7-7-|5-5-5-5-5-5-5-5-|-----------6----|

+guitar riff+
G|--------7-------|--------7-------|--------------6-|--------9-9-7-6-|
D|----------------|----------------|--------7-7-9---|------9---------|
A|------9---7-8-9-|------9---7-8-9-|9-9---9---------|7-7-------------| x2
E|7-7-------------|7-7-------------|----------------|----------------|


[VERSE]
G|------------------------|------------------------|
D|---------------12-------|---------------12-------|
A|14-14-12-13-14----14-12-|14-14-12-13-14----14-12-| x2
E|------------------------|------------------------|

  "Too much!....                   _
G|------------------------|------------------------| |
D|---------------12-------|---------------12-------| |
A|14-14-12-13-14----14-12-|14-14-12-13-14----14-12-| |
E|------------------------|------------------------| |
 > x2
|
G|---------------12-------|---------------12-------| |
D|14-14-12-13-14----14-12-|14-14-12-13-14----14-12-| |
A|------------------------|------------------------| |
E|------------------------|------------------------|_ |

       
[BRIDGE]
"We had a dream..."
G|----------------|----------------|----------------|----------------|
D|7-7-7-7-7-7-7-7-|7-7-7-7-7-7-7-7-|5-5-5-5-5-5-5-5-|5-5-5-5-5-5-5-5-|
A|----------------|----------------|----------------|----------------|
E|----------------|----------------|----------------|----------------|
"... and it's a crying...
G|4-4-4-4-4-4-4-4-|4-4-4-4-4-4-4-4-|----------------|----------------|
D|----------------|----------------|5-5-5-5-5-5-5-5-|5-5-5-5-5-5-5-5-|
A|----------------|----------------|----------------|----------------|
E|----------------|----------------|----------------|----------------|


[CHORUS]
...shame!"                                                            _
G|----------------|----------------|----------------|----------------| |
D|----------------|----------------|----------------|----------------| |
A|5-5-5-5-5-5-5-5-|5-5-5-5-5-5-5-5-|----------------|----------------| |
E|----------------|----------------|7-7-7-7-7-7-7-7-|7-7-7-7-7-7-7-7-| |
                                                                        > 2
G|----------------|----------------|----------------|----------------| |
D|----------------|----------------|----------------|7-7-7-7-7-------| |
A|----------------|----------------|----------------|----------------| |
E|7-7-7-7-7-7-7-7-|7-7-7-7-7-7-7-7-|5-5-5-5-5-5-5-5-|-----------6----|_|

+guitar riff+
G|--------7-------|--------7-------|--------------6-|--------9-9-7-6-|
D|----------------|----------------|--------7-7-9---|------9---------|
A|------9---7-8-9-|------9---7-8-9-|9-9---9---------|7-7-------------| x2
E|7-7-------------|7-7-------------|----------------|----------------|

G|----------------|
D|----------------|
A|----------------|
E|7-7-------------|

   END
Suggest correction
Give kudos to tab author, rate the tab!
1 2 3 4 5
comments
print report bad tab
guest
You may want to rate the tab now too:
select rating
Wanna post a correction for this tab? Suggest correction