Oops, an error
Loading. Please wait.

Action Faust Tab

by Muse
1,406 views 3 this week
5 commentsread comments
1 2 3 4 5
please rate
add to favorites
launch autoscroll
font size
0
reset
how to read this tab
guitar tuner
Autoscroll
slow
fast
+/-
esc
set tempo
stop
Help us to improve Ultimate-Guitar.com Take our survey!
×
Author
Band - Muse
Song - Action Faust

e|--------------------------------------------------|
B|--------------------------------------------------|
G|---------------7-----------------7----------------|
D|--------------------------------------------------| X4
A|-8-9-8-9-8-9--9-8-9-8-9-8-9-9---------------------|
E|--------------------------------------------------|

e|--------------------------------------------------|
B|--------------------------------------------------|
G|--------------------------------------------------|
D|--------------------------------------------------|
A|-5-5-5-5-5-5-5-5-5-5-5-5-7-7-7-7-9-9-9-9-9-9-9-9--|
E|--------------------------------------------------|

e|--------------------------------------------------|
B|--------------------------------------------------|
G|--------------------------------------------------|
D|--------------------------------------------------|
A|10-10-10-10-12-12-12-12-14-14-14-14-14-14-14-14---|
E|--------------------------------------------------|

e|--------------------------------------------------|
B|--------------------------------------------------|
G|--------------------------------------------------|
D|--------------------------------------------------|
A|-16-14-16-14-16-14-16-14-16-16--------------------|
E|--------------------------------------------------|
Suggest correction
Give kudos to tab author, rate the tab!
1 2 3 4 5
comments
print report bad tab
5 comments total. Showing first comments.
0 reply
crying*shame 30 wrote on July 7 2006, 04:45 pm

is this even a muse song....? where did you find it ?
Action Faust?!?!?!

0 reply
Briscoe06 10 wrote on November 11 2006, 04:52 am

Solo before 2nd verse(fast picking)
e|--------------------------|
B|--------------------------|
G|-9------8----------9-10-7-|
D|---10-7---10-7-6-9--------|
A|--------------------------|
E|--------------------------| X1


Verse 2
e|------------------------------------------------|
B|------------------------------------------------|
G|--2-2-5-2---4-4-2-4-------9---------------------|
D|--2-2-5-2---4-4-2-4---2-2-9-2-------------------|
A|--0-0-3-0---2-2-0-2---2-2-7-2-------3--------5--|
E|----------------------0-0---0---1-1---1--3-3---3| X3

2nd Pre chorus (Play each chord for a bar each)
e|------------------|
B|------------------|
G|--10--12--14--12--|
D|--x---x---x---x---|
A|--8---10--12--10--|
E|------------------|

e|----------------|
B|----------------|
G|-12--10---9-----|
D|-x---x----x-----|
A|-10--8----7-----|
E|----------------|

Chorus(don't play last line like in first chorus)
e|--1--3---5--3----|
B|--1--3---5--3----|
G|--2--4---5--5----|
D|--3--5---7--5----|
A|--3--5---7--3----|
E|--1--3---5-------| X2

IM just doin dis 4 fun!

0 reply
MaXiMuse 952 wrote on May 4 2007, 06:18 am

If you look to the first bar then I think it`s TSP (The Small Print)

guest
You may want to rate the tab now too:
select rating
Wanna post a correction for this tab? Suggest correction