Oops, an error
Loading. Please wait.

Aftermath bass

version 1
version 1

Whole song

Interactive

by Muse
4,354 views 15 this week
5 commentsread comments
1 2 3 4 5
x 4
add to favorites
×
Save as Personal and add changes to this tab that will be seen only by you. Learn more ›
×
You can save this tab as Personal to edit and correct it or add notes. All changes will be seen only by you. Learn more »
launch autoscroll
font size
0
reset
guitar tuner
edit
Autoscroll
slow
fast
+/-
esc
set tempo
stop
Author
-------------------------------------------------------------------------------
                            Aftermath - Muse
-------------------------------------------------------------------------------

Tabbed by: Muser00
Tuning: Standard

The bass start at 2:18 after the 1st Chorus

G|-------11-11-9h11h9-----------9-13-13h14h13-----------7-7-6h7h6-------7~-7/9-999~-|
D|--------------------11------9---------------14------7-----------9-7---------------|
A|-9~--9------------------7~----------------------2~------------------5~------------|
E|----------------------------------------------------------------------------------|

Verse

G|---------------------------------------------|x2
D|---------------------------------------------|
A|-9~---9-9~--7~---7-7~--2~---2-2~--5~--5-7-7~-|
E|-----9----------7----------2-----------------|


Chorus

G|--------------------------------7---7--7~---------------------9------------7-----------7--------------12-----------|
D|----7---7--7~------7--------------------------7--------------------------------------------------------------------|
A|----------------------4--4~--5~---5---------------------5~-7~---7-7-7-4~-5~--5-5--5~--5~--5-8--8~--10~---10-10-10~-|
E|-5~---5-------5~----5---------------------5~---5-5--5~-------------------------------------------------------------|

Solo

G|-------11-11-9h11h9-----------9-13-13h14h13-----------7-7-6h7h6-------7~-7/9~-|
D|--------------------11------9---------------14------7-----------9-7-----------|
A|-9~--9------------------7~----------------------2~------------------5~--------|
E|------------------------------------------------------------------------------|

G|-------11-11-9h11h9----------9-9-13h14h13-----------7-7-6h7h6-------7~-7/9~-|
D|--------------------11------9-9-----------14------7-----------9-7-----------|
A|-9~--9------------------7~--------------------2~------------------5~--------|
E|----------------------------------------------------------------------------|

Pre-Chorus

G|--------------------------------------|
D|--------------------------------------|
A|-9(x16)-7(x16)-2(x16)--5(x8)-5~----7~-|
E|--------------------------------------|

Chorus 

G|--------------------------------------------6h7h6h7h6--------------------------------------------------|
D|----7---7-7~-----------------------------7-----------7/0-----------------------------------------------|
A|---------------4~---4-------5~-55-5~---------------------45-7~-77-7~---45~-55-5~--57-8~-88-8~----------|
E|-5~---5--------------5---0------------5~---5--------------------------5-----------------------5~-55-5~-|

G|--------------------------------------------------------------------|
D|--------------------------------------------------------------------|
A|--------4(x8)-5(x24)--------5(x8)-7(x20)-4(x4)-5(x16)-8(x8)-10(x24)-|
E|-5(x24)--------------5(x24)-----------------------------------------|


G|-------------------------6------7---7--7~---------------------9------------7-----------7--------------12----12-12~-|
D|----7---7--7~------7--------------------------7--------------------------------------------------------------------|
A|----------------------4------5~---5---------------------5~-7~---7-7-7-4~-5~--5-5--5~--5~--5-8--8~--10~---10--------|
E|-5~---5-------5~---5---------------------5~---5-5--5~--------------------------------------------------------------|


Outro

G|---------------------------|
D|---------------------------|
A|-7~----45~----8~----7-5/0~-|
E|------5--------------------|


| /  slide up
| \  slide down
| h  hammer-on
| p  pull-off
| ~  let ring
| +  harmonic
| x  Mute note
===============================================================================

            
            
Suggest correction
Creating personal tab
Creating personal tab
You can edit any tab online and save it as your Personal.

You can edit, replace or remove any tab part or add personal notes – all changes will be seen only by you.

Personal tabs can be accessed anytime from any device, even offline.
Learn more »
comments
print report bad tab
5 comments total. Showing first comments.
+1 reply
montymoorhouse 117 Jun 16, 2015 01:41 PM

ahahaha you beat me to it :3 btw its not all octaves in the chorus.... your on the ball for this new album though! xD

+1 reply
montymoorhouse 117 Jun 18, 2015 02:49 AM

My tab for this got rejected coz i made it too long and it went off the page. I'm not sure if i can! xD

+1 reply
montymoorhouse 117 Jun 20, 2015 07:33 AM

ahaha i don't know how but somehow it's back..... lol

guest
You may want to rate the tab now too:
select rating
Wanna post a correction for this tab? Suggest correction