Oops, an error
Loading. Please wait.

Aftermath tab

version 1
version 1

Whole song

Interactive

by Muse
37,031 views 114 this week
6 commentsread comments
1 2 3 4 5
x 34
add to favorites
×
Save as Personal and add changes to this tab that will be seen only by you. Learn more ›
×
You can save this tab as Personal to edit and correct it or add notes. All changes will be seen only by you. Learn more »
launch autoscroll
font size
0
reset
how to read this tab
guitar tuner
edit
Autoscroll
slow
fast
+/-
esc
set tempo
stop
Author
Difficulty
intermediate
-------------------------------------------------------------------------------
                             Aftermath - Muse
-------------------------------------------------------------------------------
Tabbed by: Muser00
Tuning: Standard

[Intro] 0:39

e|--------------------------------------------------------------------------|
B|--------------------------------------------------------------------------|
G|------------------4b6r4p2-4~--------------------2h4/9-----------^7--------|
D|-----2h4-4----------------------------------------------------------------|
A|--s4----------------------------------------------------------------------|
E|--------------------------------------------------------------------------|

e|---------------------------------------------------------------------------|
B|---------------------------------------------------------------------------|
G|--^6b7r6p4\2-2—2h4p2-1----------------2-----2h4p2--------1-----1h2p1-------|
D|--------------------------------------4---4--------------2-----------2-----|
A|--------------------------------------4------------------2-----------------|
E|----------------------------------2-----------------2\0------0-------------|

e|---------------------------------------------------------------------------|
B|---------------------------------------------------------------------------|
G|------7-----7--7-----------------------------------------------------------|
D|------7-----7--7-----------12--12-----------14-----------------------------|
A|------9-----9--9-----------12--12-----------14-----------------------------|
E|--/7------7--------7--/10---------10/12-12---------------------------------|

e|----------------------------------------------+12--------------------------|
B|-----------2---2-----------------------------------------------------------|
G|-----2-----4b6-4-2h4p2-----------------------------------------------------|
D|-----4-----------------4p2-------------------------------------------------|
A|-----4---------------------------------------------------------------------|
E|--2------2-----------------------------------------------------------------|

e|---------------------------------------------------------------------------|
B|---------------------------------------------------------------------------|
G|------7-----7h9p7----------------7--7--------9-----------------------------|
D|------7-----7-----9p7-9p7--------7--7--------9-----------------------------|
A|------9-------------------9---/5-------5/7-7-------------------------------|
E|--/7------7----------------------------------------------------------------|


[Verse 1] 1:44

e|------------------------------------------|
B|------10------10------10------10------10~-|
G|----9-------9-------9-------9-------9-----|
D|-12------12------12------12------12-------|
A|------------------------------------------|
E|------------------------------------------|


[Chorus] 1:53

e|---------------------------------------------|x2
B|------10---12-10---10------10---12-10---10---|
G|----9----9-------9-------9----9-------9------|
D|-11-------------------11---------------------|
A|---------------------------------------------|
E|---------------------------------------------|

e|-----------------------------------------------------|
B|-------10----12-----10----------10----12-----10------|
G|----11----11-----11----11----11----11-----11----11---|
D|-12-----------------------12-------------------------|
A|-----------------------------------------------------|
E|-----------------------------------------------------|

e|---------------------------------------------|x2
B|------10---12-10---10------10---12-10---10---|
G|----9----9-------9-------9----9-------9------|
D|-11-------------------11---------------------|
A|---------------------------------------------|
E|---------------------------------------------| 

e|-----------------------------------------------------|
B|-------10----12-----10----------10----12-----10------|
G|----11----11-----11----11----11----11-----11----11---|
D|-12-----------------------12-------------------------|
A|-----------------------------------------------------|
E|-----------------------------------------------------|

e|-----------------------------------------------------|
B|-------10----12-----10----------10----12-----10------|
G|----10----10-----10----10----10----10-----10----10---|
D|-12-----------------------12-------------------------|
A|-----------------------------------------------------|
E|-----------------------------------------------------|

e|---------------------------------------------|
B|------10---12-10---10------10---12-10---10---|
G|----9----9-------9-------9----9-------9------|
D|-11-------------------11---------------------|
A|---------------------------------------------|
E|---------------------------------------------|


[Bridge] 2:19 

e|-0---0---0---0---0---0---0---0---0---0---0---0---0---0---0---0----|
B|---5---5---5---5---5---5---5---5---3---3---3---3---3---3---3---3--|
G|------------------------------------------------------------------|
D|------------------------------------------------------------------|
A|------------------------------------------------------------------|
E|------------------------------------------------------------------|

e|-0---0---0---0---0---0-------|
B|---2---2---0---0---0---0-----|
G|-------------------------2~--|
D|-----------------------------|
A|-----------------------------|
E|-----------------------------|


[Verse 2] 2:34 

e|------------------------------------------------------------------------------|
B|------------------------------------5///7-----7\\\5---/9\\7-------------------|
G|----------------------------------------------------------------7~------------|
D|---9b10--7h9----------------------------------------------------7~------------|
A|------------------7-9------7-9~---------------------------------5~------------|
E|----------------9-------/9----------------------------------------------------|


[Chorus] 2:59

e|---------------------------------------------|x2
B|------10---12-10---10------10---12-10---10---|
G|----9----9-------9-------9----9-------9------|
D|-11-------------------11---------------------|
A|---------------------------------------------|
E|---------------------------------------------|

e|-----------------------------------------------------|
B|-------10----12-----10----------10----12-----10------|
G|----11----11-----11----11----11----11-----11----11---|
D|-12-----------------------12-------------------------|
A|-----------------------------------------------------|
E|-----------------------------------------------------|

e|---------------------------------------------|x2
B|------10---12-10---10------10---12-10---10---|
G|----9----9-------9-------9----9-------9------|
D|-11-------------------11---------------------|
A|---------------------------------------------|
E|---------------------------------------------| 

e|-----------------------------------------------------|
B|-------10----12-----10----------10----12-----10------|
G|----11----11-----11----11----11----11-----11----11---|
D|-12-----------------------12-------------------------|
A|-----------------------------------------------------|
E|-----------------------------------------------------|

e|-----------------------------------------------------|
B|-------10----12-----10----------10----12-----10------|
G|----10----10-----10----10----10----10-----10----10---|
D|-12-----------------------12-------------------------|
A|-----------------------------------------------------|
E|-----------------------------------------------------|

e|---------------------------------------------|
B|------10---12-10---10------10---12-10---10---|
G|----9----9-------9-------9----9-------9------|
D|-11-------------------11---------------------|
A|---------------------------------------------|
E|---------------------------------------------|


[Solo] 3:25

e|--------------------------------------------------------------------|
B|-17-(x24)-\12-(x6)-/15-(x12)-\14-(x4)-\12-(x4)-\10-(x4)-\9----------|
G|--------------------------------------------------------------------|
D|--------------------------------------------------------------------|
A|--------------------------------------------------------------------|
E|--------------------------------------------------------------------|


e|-/17-(x12)-16-16-16-16-17-17-19-19-17-17-19-19-22-22-22-22\21-19-(x4)-17-(x4)-14-(x4)-17-(x4)-16-(x4)-|
B|------------------------------------------------------------------------------------------------------|
G|------------------------------------------------------------------------------------------------------|
D|------------------------------------------------------------------------------------------------------|
A|------------------------------------------------------------------------------------------------------|
E|------------------------------------------------------------------------------------------------------|


[Verse 3] 3:52

           P.M.                     P.M.                   
e|-----------------------|-----------------------|
B|-----------------------|-----------------------|
G|-----------------------|-----------------------|
D|-4-4-4-4-4-4-4-4-4-4-4-|-6-6-6-6-6-6-6-6-6-6-6-|
A|-----------------------|-----------------------|
E|-----------------------|-----------------------|
           P.M.                     P.M.                   
e|-----------------------|-----------------------|--------|
B|-----------------------|-----------------------|--------|
G|-----------------------|-----------------------|--------|
D|-4-4-4-4-4-4-4-4-4-4-4-|-4-4-4-4-4-4-4-4-4-4-4-|-4~--6~-|
A|-----------------------|-----------------------|--------|
E|-----------------------|-----------------------|--------|


[Pre-Chorus]

e|---------------------------7---7-9-10-11-12~-|
B|-------------------------9---9---------------|
G|-----------------------9---------------------|
D|-----------------6-7-9-----------------------|
A|-------7-8-9-7-9-----------------------------|
E|-10\0----------------------------------------|


[Chorus 1] 4:11

e|------------------------------------------------------------------------------|
B|------------------------------------------------------------------------------|
G|-----------------------7---6--------------------------------------------------|
D|----------------------7--7----------------------------------------------------|
A|-------4-------//9------------4-5-7------4-5-----5-7-8-------7~---------------|
E|---5-7----5-0-------------------------5--------------------------//12\\0------|


[Chorus 2] 4:37 ( with tremolo picking )

e|------------------------------------------------------------------------------------------------|
B|------------------------------------------------------------------------------------------------|
G|--------------------6-6-6-6--9-9-9-9--14-14-14-14-14--11-11-11-11--14--19--14--18--18--18-18----|
D|-7-7-7-7-7-7-7-7-7--x-x-x-x--x-x-x-x--x--x--x--x--x---x--x--x--x---x---x---x---x---x---x--x-----|
A|-x-x-x-x-x-x-x-x-x--4-4-4-4--7-7-7-7--12-12-12-12-12--9--9--9--9---12--17--12--16--16--16-16----|
E|-5-5-5-5-5-5-5-5-5------------------------------------------------------------------------------|

e|------------------------------------------------------------------|
B|------------------------------------------------------------------|
G|-18--18--18---16--16--16--16--16--16--16---14--14--14--14--14-----|
D|-x---x---x----x---x---x---x---x---x---x----x---x---x---x---x------|
A|-16--16--16---14--14--14--14--14--14--14---12--12--12--12--12-----|
E|------------------------------------------------------------------|

e|---------------------------------------------------|
B|----10----10----10----10---10---10---10---10---10--|
G|-10----10----10----10----10---9----9----9----9-----|
D|---------------------------------------------------|
A|---------------------------------------------------|
E|---------------------------------------------------|


[Chorus 3] 5:03 ( with tremolo picking )

e|-----------------------------------------------------------------|
B|--<10>------<14>--<12>--<10>---<8>---<7>----<15>--<10>--<14>-----|
G|-----------------------------------------------------------------|
D|--<7->------<11>--<9->--<7->---<5>---<4>----<12>--<7->--<11>-----|
A|-----------------------------------------------------------------|
E|-----------------------------------------------------------------|

e|--------------------------------------------------|
B|--/<17>--------<19>--------<18>---------<17>------|
G|--/-----------------------------------------------|
D|--/<14>--------<16>--------<15>---------<14>------|
A|--------------------------------------------------|
E|--------------------------------------------------|


[Outro] 5:29

e|----------------------------------------------------|
B|----------------------------------------------------|
G|----------------------------------------------------|
D|----------------------------------------------------|
A|-4-5-7~------------------------4-5~-------12\\0~----|
E|-----------------------------5----------------------|

This is it!! Have fun!


************************************

| /   slide up
| \   slide down
| h   hammer-on
| p   pull-off
| ~   let ring
| +   harmonic
| x   Mute note
| b   Bend
| pb  Pre-bend
| br  Bend release
| pbr Pre-bend release
| brb Bend release bend

************************************

            
            
Suggest correction
Creating personal tab
Creating personal tab
You can edit any tab online and save it as your Personal.

You can edit, replace or remove any tab part or add personal notes – all changes will be seen only by you.

Personal tabs can be accessed anytime from any device, even offline.
Learn more »
comments
print report bad tab
6 comments total. Showing first comments.
-1 reply
Jonathan932 76 Jun 07, 2015 08:03 PM

Hey great tab! Well done getting it out so quick!

One correction, that second little burst in the intro, should be on the G string not D :)

+3 reply
Torquindou 10 Jun 09, 2015 05:44 AM

Thanks man for releasing the tab, gonna try it out now. It's one of my favorite songs on album and the guitar is great, need to play it!!

0 reply
elinaholland 53 Jun 09, 2015 09:21 AM

the first part of the intro shouldn't be on the G string. it sounds better on the D string

guest
You may want to rate the tab now too:
select rating
Wanna post a correction for this tab? Suggest correction