Oops, an error
Loading. Please wait.

Aftermath bass

version 2
version 2

Whole song

Interactive

by Muse
3,476 views 3 this week
3 commentsread comments
1 2 3 4 5
x 12
add to favorites
×
Save as Personal and add changes to this tab that will be seen only by you. Learn more ›
×
You can save this tab as Personal to edit and correct it or add notes. All changes will be seen only by you. Learn more »
launch autoscroll
font size
0
reset
guitar tuner
edit
Autoscroll
slow
fast
+/-
esc
set tempo
stop
Author
Difficulty
-------------------------------------------------------------------------------
                             Aftermath - Muse
-------------------------------------------------------------------------------
Tabbed by: Andrew P

Tuning: Standard

A couple of things to start with - At some points the bass is incredibly quiet compared to the rest of the track
so feel free to correct me if you hear something different.

Also some of the rhythms are a bit weird so the best way to get it right is just to listen to the song.

Bass Riff (2:19):
G|-------------------|11--11--9h11p9-----|-------------------|----13--13h14p13-----|
D|-------------------|---------------11\-|-------------------|14---------------14\-|
A|9----------------9-|-------------------|7---------------14-|---------------------|
E|-------------------|-------------------|-------------------|---------------------|

G|-------------------|7--7--6h7p6--------|------------7------|7h9-9----9-------9---|
D|-------------------|------------9--7---|0----------------0-|---------------------|
A|-------------------|-------------------|-------------------|---------------------|
E|7----------------7-|-------------------|-------------------|---------------------|

Verse (2:32):
G|-------------------|-------------------|-------------------|-------------------|
D|-------------------|-------------------|-------------------|-------------------|
A|9--------9--9\-----|7--------7--7\-----|2--------2--2/-----|5------5-7--7------| x2
E|-------9-----------|-------7-----------|-------2-----------|-------------------|

Chorus (2:59):
G|-------------------|-------------------|---------7--7------|-------------------|
D|----7----7--7------|----7--------------|-------------------|----7----7--7------|
A|-------------------|---------4--4------|5------5-----------|----------------5/-|
E|5------5-----------|5------5-----------|-------------------|5------5-----------|

G|----9----9--9------|----7----7--7------|-------------------|----14-------------|
D|-------------------|-------------------|-------------------|-------------------|
A|7------7--------4--|5------5-----------|5----5-5/8--8/-----|12-----1212-12-----|
E|-------------------|-------------------|-------------------|-------------------|

Bass Riff (3:25):
G|-------------------|11--11--9h11p9-----|-------------------|----13--13h14p13-----|
D|-------------------|---------------11\-|-------------------|1414-------------14\-|
A|9----------------9-|-------------------|7---------------14-|---------------------|
E|-------------------|-------------------|-------------------|---------------------|

G|-------------------|7--7--6h7p6--------|------------7------|7h9-9----9-------9---|
D|-------------------|------------9--7---|0----------------0-|---------------------|
A|-------------------|-------------------|-------------------|---------------------|
E|7----------------7-|-------------------|-------------------|---------------------|

G|-------------------|11--11--9h11p9-----|-------------------|--------13h14p13-----|
D|-------------------|---------------11\-|-------------------|14--14-----------14\-|
A|9----------------9-|-------------------|7---------------14-|--14-----------------|
E|-------------------|-------------------|-------------------|---------------------|

G|-------------------|7--7--6h7p6--------|------------7------|7h9-9----9-------9---|
D|-------------------|------------9--7---|0----------------0-|---------------------|
A|-------------------|-------------------|-------------------|---------------------|
E|7----------------7-|-------------------|-------------------|---------------------|

Bridge (3:52):
G|--------|--------|--------|--------------------|
D|--------|--------|--------|--------------------|
A|9-(x16)-|7-(x16)-|--------|--------------------|
E|--------|--------|7-(x16)-|10-(x8)-10----12----|

Final Chorus (4:10):
G|-------------------|-------------------|-------------------|----------------------------|
D|----7----7--7------|-------------------|-------------------|-------------11h12p11-------|
A|-------------------|4------4-----------|5------5-5--5/-----|12-1212--1212---------12\-56|
E|5------5-----------|---------5----0----|-------------------|----------------------------|

G|-----------------|-----------------|----------------|----------------|
D|-----------------|-----------------|----------------|----------------|
A|7--7-777-7-7----4|5--5-555-5-----57|8-8-8-888-8\----|----------------|
E|---------------5-|-----------------|----------------|5-5-5-555-5-5-0-|

Not gonna lie, the last part of this song is pretty much impossible to determine exactly, however 
what I can do is give a basic structure and then leave you to interpret the song yourself (not a perfect
solution but it's the best I could do)

G|-------------------|-------------------|----7----7--7------|-------------------| This is the BASIC structure
D|----7----7--7------|----7--------------|-------------------|----7----7--7------| of this section. The reason
A|-------------------|---------4--4------|5------5-----------|---------------5-5-| it isn't accurate is because
E|5------5-----------|5------5-----------|-------------------|5------5-----------| Chris constantly changes
                                                                                   rhythm and moves up and down
G|----9----9--9------|----7----7--7------|-------------------|----14----14-14----| each octave (e.g. 5 on E to
D|-------------------|-------------------|-------------------|-------------------| 7 on D). This is therefore
A|7------7-------4-4-|5------5-----------|5------5/8--8------|12-----12----------| only a guildline with the
E|-------------------|-------------------|-------------------|-------------------| the key notes tabbed.  
                                                                                   Do with this what you like.
G|-------------------|-------------------|----7----7--7------|-------------------| 
D|----7----7--7------|----7--------------|-------------------|----7----7--7------|
A|-------------------|---------4--4------|5------5-----------|---------------5-5-| 
E|5------5-----------|5------5-----------|-------------------|5------5-----------| 

G|----9----9--9------|----7----7--7------|-------------------|----14----14-14----| 
D|-------------------|-------------------|-------------------|-------------------| 
A|7------7-------4-4-|5------5-----------|5------5/8--8------|12-----12----------|
E|-------------------|-------------------|-------------------|-------------------|
 
G|-------------------|-------------------|-------------------|-------------------| 
D|-------------------|-------------------|-------------------|-------------------| Note: This last line is
A|7-----------------4|5------------------|8--------7----5----|-------------------| actually accurate
E|-----------------5-|-------------------|-------------------|5------------------|

If somebody can give me and exact tab of the final section I would be happy to use it.

| /  slide up
| \  slide down
| h  hammer-on
| p  pull-off
| ~  vibrato
| +  harmonic
| x  Mute note
===============================================================================
Suggest correction
Creating personal tab
Creating personal tab
You can edit any tab online and save it as your Personal.

You can edit, replace or remove any tab part or add personal notes – all changes will be seen only by you.

Personal tabs can be accessed anytime from any device, even offline.
Learn more »
comments
print report bad tab
3 comments total.
0 reply
montymoorhouse 117 Jun 23, 2015 01:12 AM

Nice job man! Out of all our 3 tabs for this track this one is definitely the best one. I'm not even sure how mine got accepted. 5* for you....

0 reply
wybor 10 Sep 18, 2015 03:08 AM

this one is the most accurate 5* for you

0 reply
HitTheRoad 59 Feb 03, 2016 08:01 PM

There is bass at the beginning.

guest
You may want to rate the tab now too:
select rating
Wanna post a correction for this tab? Suggest correction