Oops, an error
Loading. Please wait.

Aftermath bass

version 3
version 3

Whole song

Interactive

by Muse
566 views 1 this week
1 commentread comment
1 2 3 4 5
2 more votes to show rating
add to favorites
×
Save as Personal and add changes to this tab that will be seen only by you. Learn more ›
×
You can save this tab as Personal to edit and correct it or add notes. All changes will be seen only by you. Learn more »
launch autoscroll
font size
0
reset
guitar tuner
edit
Autoscroll
slow
fast
+/-
esc
set tempo
stop
-------------------------------------------------------------------------------
                             Aftermath - Muse
-------------------------------------------------------------------------------
Tabbed by: Monty Moorhouse
E-mail: monty.moorhouse@yahoo.com

Tuning:G
       D
       A
       D

Some hard rhythms to master in this one. Good prog rock song though on the new Muse album; 
Drones.
Enjoy!

2:19
G|-------------11-11---9h11p9-----------------9--13--14-13-----------------7-7-6h7p6-------7---7-9-9-9-|
D|----------11-----------|-----11-----------9--------------14----------3h4-------|---9-7---------------|
A|-9---------------------|---------7---------------------------2------(8h9)------|------------5---5----|
D|----------(Same rhythm as The Groove by Muse)---------------(9)------------(Tricky)------------------|


2:32
G|---------------------------------------------------------|
D|---------------------------------------------------------|
A|-9-------9-9----7------7-7----2------2-2----5----5--7-7--| X2
D|------11-------------9-------------4---------------------|

3:00 Chorus
G|---------------------------------------------------------9----9-9-------------------------------------------|
D|-------7-7------------------------------------7-7-------------------------------------------------7---7-7-7-|
A|-----7--------------4-4---5---5--5-5--------------5---7-----7-------4----5------5-5---5---5---8-8-----------|
D|-7-----------7---7---------------------7---7----------------------------------7-----------------------------|

3:26 Guitar Solo
G|-------------11-11---9h11p9-----------------9--13--14-13-----------------7-7-6h7p6-------7---7-9-9-9-|
D|----------11-----------------11-----------9--------------14----------3h4-----------9-7---------------|
A|-9-------------------------------7---------------------------2------(8h9)--------------5---5---------|
D|------------------------------------------------------------(9)--------------------------------------|

3:40 Higher pitch guitar solo
G|-------------11-11---9h11p9-----------------9---9-13h14p13----|
D|----------11-----------------11-----------9---9------------14-|
A|-9-------------------------------7----------------------------|
D|--------------------------------------------------------------|

3:47
G|-------------7-7-6h7p6-------7---7-9-9-9-|
D|---------3h4-----------9-7---------------|
A|-2------(8h9)--------------5---5---------|
D|-----------------------------------------|

3:52
G|------------------------------------------------7----9~~~-|
D|-----------------------------------------------------|----|
A|-9---9--9-9---7---7--7-7\---2---2--2-2---5---5-------|----|
D|----------------------------------------------(Let ring)--|

4:10 Other Guitar Solo
G|-------------------------------------------6h7p6-----------------------------------------------|
D|--------------------------------------7-7---------7\-------------------------------------------|
A|-------------4---4-4-4---5---5-5-5--------------------4-5-7----7-7-7----0-4-5----5-5-5---5-7-8-|
D|-7---7-7-7-------------------------------------------------------------------------------------|

4:31
G|-------------------------------------------------------------------------(2)-----------------9-9-9-9-|
D|--------------------------------------------------------------------------7---7-7-7------------------|
A|-8-8-8-8-8-8-8-8\-0-0-0-0--0-0-0-0--0-0-0-0--4-4-4-4--5-5-5-5--5-5-5-5--0-----------5-5--7-7---------|
D|-----------------------------------------------------------------------------------------------------|

4:52
G|----------7-7-7-7--7-7-7-7-----------------------------------------|
D|--------------------------------------------7-7-7-7---7-7-7---7-9\-|
A|-4-4--5-5------------------5-5-5-5--8-8-8-8-----------------7------|
D|----------------------------------------------------7--------------|

5:04
G|--------------------------------6-7----------------------(2-2)--------------9-9---------------7-7-|
D|----------------------------------------------------------7-7-------------------------------------|
A|-0-0-0-0--0-0-0-0--0-0-0-0--4-4-----5-5-5-5--5-5-5-5--0-0-----0-0--5-5--7-7-----7-7\-4-4--5-5-----|
D|--------------------------------------------------------------------------------------------------|

5:21
G|-------------------------------------------------------|
D|-------------------------------------------------------|
A|-5-5-5-5--5-5-5-5--8-8-8-8/--10-10-10-10--10-10-10-10\-|
D|-------------------------------------------------------|

5:30
G|----------------------------------------|
D|----------------------------------------|
A|-7~----0-4-5~--------8~----7---5\-----0-|
D|----------------------------------------|

Thanks for using my tab, this is mostly the notes and not the rhythm but enjoy likewise! -Monty

| /  slide up
| \  slide down
| h  hammer-on
| p  pull-off
| ~  vibrato
| +  harmonic
| x  Mute note
===============================================================================

            
            
Suggest correction
Creating personal tab
Creating personal tab
You can edit any tab online and save it as your Personal.

You can edit, replace or remove any tab part or add personal notes – all changes will be seen only by you.

Personal tabs can be accessed anytime from any device, even offline.
Learn more »
Give kudos to tab author, rate the tab!
1 2 3 4 5
comments
print report bad tab
1 comment total.
0 reply
Artolan 273 May 18, 2016 09:56 AM

My question is, where do you need drop D?

guest
You may want to rate the tab now too:
select rating
Wanna post a correction for this tab? Suggest correction