Oops, an error
Loading. Please wait.

Animals Bass Tab

version 2
version 2

Whole song

Interactive

by Muse
26,825 views 81 this week
2 commentsread comments
1 2 3 4 5
excellent!
x 21
add to favorites
launch autoscroll
font size
0
reset
guitar tuner
Autoscroll
slow
fast
+/-
esc
set tempo
stop
Help us to improve Ultimate-Guitar.com Take our survey!
×
Author
Difficulty
Tuning
intermediate
D# G# C# F# A# D#
Band: Muse
Song: Animals
Album: The 2nd Law (2012)
Bassist: Chris Wolstenholme
Tuning: Half-Step Down

Verse:

Gb|9--9-9--9-9-11-9-8-|7--7-7--7-7-9-7---|   |
Db|-------------------|----------------9-|   |
Ab|-------------------|------------------|   |
Eb|-------------------|------------------|   |
                                             | x6
Gb|-------------------|--------------7-8-|   |
Db|-7--7-7--7-7-9-7-6-|5--5-5--5-7-9-----|   |
Ab|-------------------|------------------|   |
Eb|-------------------|------------------|   |

Chorus:

Gb|-----------------|-----------------|-----------------|-----------------|
Db|7--7-7--7-7-7-7--|6--6-6--6-6-6-6--|5--5-5--5-5-5-5--|4--4-4--4-4-4-4--|
Ab|-----------------|-----------------|-----------------|-----------------|
Eb|-----------------|-----------------|-----------------|-----------------|

Gb|-----------------|-----------------|-----------------|-----------------|
Db|-----------------|-----------------|-----------------|-----------------|
Ab|5--5-5--5-5-5-5--|3--3-3--3-3-3-3--|1--1-1--1-1-1-1--|0--0-0--0-0-0-0--|
Eb|-----------------|-----------------|-----------------|-----------------|

Gb|-----------------|-----------------|-----------------|-----------------|
Db|5--5-5--5-5-5-5--|4--4-4--4-4-4-4--|2--2-2--2-2-2-2--|0--0-0--0-0-0-0--|
Ab|-----------------|-----------------|-----------------|-----------------|
Eb|-----------------|-----------------|-----------------|-----------------|

Gb|-----------------|-----------------|-----------------|-----------------|
Db|-----------------|-----------------|-----------------|-----------------|
Ab|3--3-3--3-3-3-3--|0--0-0--0-0-0-0--|2--2-2--2-2-2-2--|2--2-2--2-2-2-2-/|
Eb|-----------------|-----------------|-----------------|-----------------|

Gb|-----------------|-----------------|
Db|9--9-9--9-9-9-9--|9--9-9--9-9-9-9--|
Ab|-----------------|-----------------|
Eb|-----------------|-----------------|

Play verse (x6):
Play chorus:

Bridge:

Gb|-----9----7--------|
Db|--------------10---|
Ab|7--7----7---7----7-|
Eb|-------------------| x4

Guitar solo:

Gb|9--9-9--9-9-11-9-8-|7--7-7--7-7-9-7---|       |
Db|-------------------|----------------9-|       |
Ab|-------------------|------------------|       |
Eb|-------------------|------------------|       |
                                                 | x2
Gb|-------------------|------------------7-8-|   |
Db|-7--7-7--7-7-9-7-6-|5--5-5--5-5-5-7-9-----|   |
Ab|-------------------|----------------------|   |
Eb|-------------------|----------------------|   |

Chorus:

Gb|-----------------|-----------------|-----------------|-----------------|
Db|7--7-7--7-7-7-7--|6--6-6--6-6-6-6--|5--5-5--5-5-5-5--|4--4-4--4-4-4-4--|
Ab|-----------------|-----------------|-----------------|-----------------|
Eb|-----------------|-----------------|-----------------|-----------------|

Gb|-----------------|-----------------|-----------------|-----------------|
Db|-----------------|-----------------|-----------------|-----------------|
Ab|5--5-5--5-5-5-5--|3--3-3--3-3-3-3--|1--1-1--1-1-1-1--|0--0-0--0-0-0-0--|
Eb|-----------------|-----------------|-----------------|-----------------|

Gb|-----------------|-----------------|-----------------|-----------------|
Db|5--5-5--5-5-5-5--|4--4-4--4-4-4-4--|2--2-2--2-2-2-2--|0--0-0--0-0-0-0--|
Ab|-----------------|-----------------|-----------------|-----------------|
Eb|-----------------|-----------------|-----------------|-----------------|

Gb|-----------------|-----------------|-----------------|-----------------|
Db|-----------------|-----------------|-----------------|-----------------|
Ab|3--3-3--3-3-3-3--|0--0-0--0-0-0-0--|2--2-2--2-2-2-2--|2--2-2--2-2-2-2-/|
Eb|-----------------|-----------------|-----------------|-----------------|

Gb|-----------------|-----------------|
Db|9--9-9--9-9-9-9--|9--9-9-9-9-9-9-9-|
Ab|-----------------|-----------------|
Eb|-----------------|-----------------|

Play Bridge 4 times:

Ending:

Gb|-------------------|     |-------------------|
Db|-------------------|     |-------------------|
Ab|-------------------|     |-------------------|
Eb|0--0-12--0-10-0-8--| x15 |0--0-12--0-10-0-8\-|

/  slide up
\  slide down
h  hammer-on
p  pull-off
~  let ring     
Suggest correction
What's this?
You can suggest a correction to this tab. Community and Mods will review your correction and vote to approve or reject it.
comments
print report bad tab
2 comments total.
+2 reply
rafa853 17 wrote on July 18 2013, 11:50 am

Verse:

Gb|9--9-9--9-9-11-9-8-|7--7-7--7-7-9-7---| |
Db|-------------------|----------------9-| |
Ab|-------------------|------------------| |
Eb|-------------------|------------------| |
| x6
Gb|-------------------|--------------7-8-| |
Db|-7--7-7--7-7-9-7-6-|5--5-5--5-7-9-----| |
Ab|-------------------|------------------| |
Eb|-------------------|------------------| |

+2 reply
4useless 2,782 wrote on July 18 2013, 06:52 pm

Hey! Thanks man. Looks like I need to pay more attention before submitting next tabs :)

guest
You may want to rate the tab now too:
select rating
Please do not post tabs as comments. Select "correction" instead!