Oops, an error
Loading. Please wait.

Apocalypse Please Tab

version 2
version 2
by Muse
5,855 views 12 this week
6 commentsread comments
1 2 3 4 5
accurate
x 4
add to favorites
launch autoscroll
font size
0
reset
how to read this tab
guitar tuner
Tab Pro tools
  • play this tab
  • loop segment
  • change instrument
  • show fretboard
  • metronome
×
Best way to learn
"Apocalypse Please"
Autoscroll
slow
fast
+/-
esc
set tempo
stop
Contributor
Tuning:Standard

Guitar:
F#m/C# C# 
--2---------------|
--2--------6------|
--2--------6------|
--4--------6------| (x4) 
--4--------4------|
------------------|


F#m D/F# E/B C#aug A 
-------------------|--------------------|
------2---2---2----|-------3---3---3----|
----2--2-2-2-2-2-2-|-----2--2-2-2-2-2-2-|
---4-4--4---4---4--|----0-0--0---0---0--|
-------------------|--------------------|
--2----------------|--2-----------------|

----------------------|--------------------|
------0----------1----|------2---2---2-----|
----1--1-1-----1--1-1-|----2--2-2-2-2-2-2--|
---2-2--2-----2-2--2--|---2-2--2---2---2---|
--2----------3--------|--0-----------------|
----------------------|--------------------|

C# A C#
-------5----|---------|
--6----5----|---6~~---|
--6----6----|---6~~---|
--6----7----|---6~~---| 
--4----7----|---4~~---|
-------5----|---------|

F#m C# 
--9----9----9----9------|--9---9---9---9-----|
---10---10---10---10----|---9---9---9---9----|
-----11---11---11---11--|----10--10--10--10--|
------------------------|--------------------|
------------------------|--------------------|
------------------------|--------------------|

F#m D C#sus4 C#
-9----9----9----9-----|-10----10----10----10-----|
--10---10---10---10---|---10----10----10----10---|
----11---11---11---11-|-----11----11----11----11-|
----------------------|--------------------------| 
----------------------|--------------------------|
----------------------|--------------------------|

-9---9---9---9----|-9---9---9---9---R
--9---9---9---9---|--9---9---9---9--E
--11--11--11--11--|--10--10--10--10-P x3
------------------|-----------------E 
------------------|-----------------A
------------------|-----------------T

F#m D Bm C7dim C#
-9----9----9----9------|10---10---10--10------|
--10---10---10---10----|--10---10---10--10----|
----11---11---11---11--|----11---11---11--11--| 
-----------------------|----------------------|
-----------------------|----------------------|
-----------------------|----------------------|

-7--7--7--7----|-8--8--8--8----|-----------|
--7--7--7--7---|--7--7--7--7---|-6-6-6-6---|
---7--7--7--7--|---8--8--8--8--|-6-6-6-6---| 
---------------|---------------|-6-6-6-6---|
---------------|---------------|-4-4-4-4---|
---------------|---------------|-----------|

C# F#m D Bm C# F#m
--------2--4--2--|--2--4--2--|--2--2--2--|-----------|--2~~---|
--6-6---2--2--2--|--3--3--3--|--3--3--3--|--6--6--6--|--2~~---|
--6-6---2--2--2--|--2--2--2--|--4--4--4--|--6--6--6--|--2~~---|
--6-6---4--4--4--|--0--0--0--|--4--4--4--|--6--6--6--|--4~~---| 
--4-4------------|-----------|--2--2--2--|--4--4--4--|--4~~---|
-----------------|-----------|-----------|-----------|--2~~---|

Ok and that's it!!
I would give you the e-mail address for it but I couldn't find it so, sorry!! :-(
comments
print report bad tab
6 comments total. Showing first comments.
0 reply
feesk8ordie wrote on February 9 2005, 12:00 am

this songs all piano, no guitars

0 reply
VirusB13 wrote on June 7 2005, 12:00 am

Yeah... They synth the guitar... That's why it sounds piano mate...

0 reply
feesk8ordie wrote on September 3 2005, 12:00 am

maybe chords would've been more appropriate...

I want to post or [tab]
guest
You may want to rate the tab now too:
select rating
Please do not post tabs as comments. Select "correction" instead!