Oops, an error
Loading. Please wait.

Big Freeze Tab

version 1
version 1

Whole song

Interactive

by Muse
34,092 views 51 this week
5 commentsread comments
1 2 3 4 5
accurate
x 16
add to favorites
launch autoscroll
font size
0
reset
how to read this tab
guitar tuner
Autoscroll
slow
fast
+/-
esc
set tempo
stop
Help us to improve Ultimate-Guitar.com Take our survey!
×
Author
Difficulty
intermediate
Listen to track to learn strumming patterns.
Intro
E|---------------------|
B|---8---9----8---9----|
G|---8---8----8---8----|
D|---8---8----8---8----|
A|---6---11---6---11---|
E|---------------------|

Verse
E|------------------------------------------------------------------------|
B|---8---9---8---8---8------------------8------------------8---9---8---8--|
G|---8---8---8---8---8---12---13---13---8---12---13---14---8---8---8---8--|
D|---8---8---8---8---8---13---13---13---8---13---13---15---8---8---8---8--|
A|---6---6---6---6---6---10---11---11---6---10---11---12---6---6---6---6--|
E|------------------------------------------------------------------------|

Pre Chorus
E|------------------------------------------|
B|--11---11---11---11---11---11---11---11---|
G|--12---13---12---12---12---13---13---12---|
D|--13---13---13---13---13---13---13---13---|
A|------------------------------------------|
E|------------------------------------------|

E|------------------------------------------|
B|--11---11---13---13---11---11---11---11---|
G|--12---12---13---14---12---10---13---12---|
D|--13---11---13---13---13---12---13---13---|
A|------------------------------------------|
E|------------------------------------------|

Chorus
E|------------------------------------------|
B|--13---15---13---11---13---15---16---18---|
G|--12---15---13---12---12---15---17---19---|
D|--13---15---13---13---13---15---18---20---|
A|------------------------------------------|
E|------------------------------------------|

Those are all the rythme parts you need to play the whole song, now the solo...

Starts with a silly pick slide (easy to attempt to mimic...)
then roughly this (whammy bar most of it)

E|----------------------------|--------------------------11-11-11--11---|
B|----------------------------|------------------9--9b-9---9--9--9-8----|
G|--10b---------8-10b--8~---7-|---5----------5-8------------------------|
D|----------6-8---------------|------------5----------------------------|
A|----------------------------|--------5-6------------------------------|
E|----------------------------|-----------------------------------------|

E|----------------------------------------------------|
B|--20--21-20--18-16-18-16~--20b--20------------------|
G|-------------------------------------------5---3----|
D|----------------------------------------------------|
A|----------------------------------------------------|
E|----------------------------------------------------|

E|----------------------------11-----|
B|--16------15-------13--11-9---9----|
G|-------------------------------12--| x3
D|-----------------------------------|
A|-----------------------------------|
E|-----------------------------------|

E|------------------------------------11-----|
B|--16-18-18b-18-16-15-------13--11-9---9----|
G|---------------------------------------12--|
D|-------------------------------------------|
A|-------------------------------------------|
E|-------------------------------------------|

Outro
E|--11~------|
B|-----------|
G|--8~-------|
D|-----------|
A|-----------|
E|-----------|



And there you go. Its not 100% but it works.
I've done a cover if you wanna see how i play this tab:
http://www.youtube.com/watch?v=stSCj2HmC84&feature=g-upl
Suggest correction
comments
print report bad tab
5 comments total. Showing first comments.
-1 reply
rainwater34 1,312 wrote on October 12 2012, 09:30 am

Strumming pattern for the intro/verse i use as i dont have the step effects:

U - Up Stroke
D - Down Stroke

U D U D U D U D U D U D U D U D
E|---------------------------------------|
B|----------7-----------7-------7--------|
G|------x---x---x---x---x---x---x---x----|
D|----7-7-7-7-7-7-7-7-7-7-7-7-7-7-7-7----|
A|----5-5-5---5-5-5-5-5---5-5-5---5-5----|
E|---------------------------------------|

+1 reply
stev067 10 wrote on October 24 2012, 06:28 pm

Here's my rendition...and thanks for the help.

Intro:
e----------6--------------------------------6----------
b----------8----------9----------8----------9----------
g----------8----------8----------8----------8----------
d----------8----------8----------8----------8----------
a----------6----------6----------6----------6----------
E-------------------------------------------6----------

Healed… Just… Fine… Found… to escape…
e----------6-----------------------------------------6----------9----------6----------
b----------8--------------------8--------------------8----------8----------9----------
g----------8--------------------8--------------------8----------6----------8----------
d----------8--------------------8--------------------8----------8----------6----------
a----------6--------------------6--------------------6----------6----------6----------
E-------------------------------------------------------------------------------------

Here… Just… Need…
e---------------------9----------6----------5----------
b----------8----------8----------9----------6----------
g----------8----------6----------8----------8----------
d----------8----------8----------6----------7----------
a----------6----------6----------6---------(6)---------
E------------------------------------------------------

Hole… Up… Is… Our way…
e----------6----------6----------6----------6----------
b----------8----------9----------9----------8----------
g----------8----------7----------8----------8----------
d----------8----------8----------8----------8----------
a----------6----------6----------6----------6----------
E------------------------------------------------------

0 reply
stev067 10 wrote on October 24 2012, 06:30 pm

Just realized my lyric spacing didn't work in my previous comment... ignore the lyric positions.

guest
You may want to rate the tab now too:
select rating
Please do not post tabs as comments. Select "correction" instead!