Oops, an error
Loading. Please wait.

Black Holes And Revaltions Tab

by Muse
104,734 views 42 this week
19 commentsread comments
1 2 3 4 5
x 25
add to favorites
launch autoscroll
font size
0
reset
how to read this tab
guitar tuner
Autoscroll
slow
fast
+/-
esc
set tempo
stop
Help us to improve Ultimate-Guitar.com Take our survey!
×
Author
TAKE A BOW - Muse
Tuning: EADGBe

[SYNTH BASS]
e|-------------------------|-------------------------|-------------------------|
B|-------------------------|-------------------------|-------------------------|
G|-2-------2-------2-------|-3-------3-------3-------|-2-------2-------2-------|
D|---4---4---4---4---4---4-|---4---4---4---4---4---4-|---4---4---4---4---4---4-|
A|-----5-------5-------5---|-----5-------5-------5---|-----5-------5-------5---|
E|-------------------------|-------------------------|-------------------------|

e|-------------------------|-------------------------|-------------------------|
B|-------------------------|-------------------------|-------------------------|
G|-3-------3-------3-------|-2-------2-------2-------|-3-------3-------3-------|
D|---4---4---4---4---4---4-|---4---4---4---4---4---4-|---5---5---5---5---5---5-|
A|-----5-------5-------5---|-----5-------5-------5---|-----5-------5-------5---|
E|-------------------------|-------------------------|-------------------------|

e|-------------------------|-------------------------|
B|-------------------------|-------------------------|
G|-2-------2-------2-------|-2-------2-------2-------|
D|---4---4---4---4---4---4-|---4---4---4---4---4---4-|
A|-----5-------5-------5---|-----5-------5-------5---|
E|-------------------------|-------------------------|

e|-------------------------|-------------------------|-------------------------|
B|-------------------------|-------------------------|-------------------------|
G|-2-------2-------2-------|-3-------3-------3-------|-2-------2-------2-------|
D|---4---4---4---4---4---4-|---4---4---4---4---4---4-|---4---4---4---4---4---4-|
A|-----5-------5-------5---|-----5-------5-------5---|-----5-------5-------5---|
E|-------------------------|-------------------------|-------------------------|

e|-------------------------|-------------------------|-------------------------|
B|-------------------------|-------------------------|-------------------------|
G|-3-------3-------3-------|-2-------2-------2-------|-3-------3-------3-------|
D|---4---4---4---4---4---4-|---4---4---4---4---4---4-|---5---5---5---5---5---5-|
A|-----5-------5-------5---|-----5-------5-------5---|-----5-------5-------5---|
E|-------------------------|-------------------------|-------------------------|

e|-------------------------|-------------------------|
B|-------------------------|-------------------------|
G|-2-------2-------2-------|-3-------3-------3-------|
D|---4---4---4---4---4---4-|---5---5---5---5---5---5-|
A|-----5-------5-------5---|-----5-------5-------5---|
E|-------------------------|-------------------------|

e|-------------------------|-------------------------|-------------------------|
B|-------------------------|-------------------------|-------------------------|
G|-0-------0-------0-------|-0-------0-------0-------|-0-------0-------0-------|
D|---0---0---0---0---0---0-|---0---0---0---0---0---0-|---0---0---0---0---0---0-|
A|-----0-------0-------0---|-----1-------1-------1---|-----0-------0-------0---|
E|-------------------------|-------------------------|-------------------------|

e|-------------------------|-------------------------|-------------------------|
B|-------------------------|-------------------------|-------------------------|
G|-0-------0-------0-------|-0-------0-------0-------|-1-------1-------1-------|
D|---0---0---0---0---0---0-|---0---0---0---0---0---0-|---0---0---0---0---0---0-|
A|-----1-------1-------1---|-----0-------0-------0---|-----1-------1-------1---|
E|-------------------------|-------------------------|-------------------------|

e|-------------------------|-------------------------|-------------------------|
B|-------------------------|-------------------------|-------------------------|
G|-0-------0-------0-------|-1-------1-------1-------|-1-------1-------1-------|
D|---0---0---0---0---0---0-|---0---0---0---0---0---0-|---0---0---0---0---0---0-|
A|-----0-------0-------0---|-----1-------1-------1---|-----2-------2-------2---|
E|-------------------------|-------------------------|-------------------------|

e|-------------------------|-------------------------|-------------------------|
B|-------------------------|-------------------------|-------------------------|
G|-1-------1-------1-------|-1-------1-------1-------|-1-------1-------1-------|
D|---1---1---1---1---1---1-|---0---0---0---0---0---0-|---1---1---1---1---1---1-|
A|-----2-------2-------2---|-----2-------2-------2---|-----2-------2-------2---|
E|-------------------------|-------------------------|-------------------------|

e|-------------------------|-------------------------|-------------------------|
B|-------------------------|-------------------------|-------------------------|
G|-1-------1-------1-------|-1-------1-------1-------|-1-------1-------1-------|
D|---0---0---0---0---0---0-|---1---1---1---1---1---1-|---0---0---0---0---0---0-|
A|-----2-------2-------2---|-----3-------3-------3---|-----2-------2-------2---|
E|-------------------------|-------------------------|-------------------------|

e|-------------------------|-------------------------|-------------------------|
B|-------------------------|-------------------------|-------------------------|
G|-1-------1-------1-------|-1-------1-------1-------|-1-------1-------1-------|
D|---0---0---0---0---0---0-|---0---0---0---0---0---0-|---1---1---1---1---1---1-|
A|-----2-------2-------2---|-----2-------2-------2---|-----2-------2-------2---|
E|-------------------------|-------------------------|-------------------------|

e|-------------------------|-------------------------|-------------------------|
B|-------------------------|-------------------------|-------------------------|
G|-1-------1-------1-------|-1-------1-------1-------|-1-------1-------1-------|
D|---0---0---0---0---0---0-|---1---1---1---1---1---1-|---0---0---0---0---0---0-|
A|-----2-------2-------2---|-----2-------2-------2---|-----2-------2-------2---|
E|-------------------------|-------------------------|-------------------------|

e|-------------------------|-------------------------|-------------------------|
B|-------------------------|-------------------------|-------------------------|
G|-1-------1-------1-------|-1-------1-------1-------|-1-------1-------1-------|
D|---1---1---1---1---1---1-|---0---0---0---0---0---0-|---1---1---1---1---1---1-|
A|-----3-------3-------3---|-----2-------2-------2---|-----3-------3-------3---|
E|-------------------------|-------------------------|-------------------------|

e|-------------------------|-------------------------|-------------------------|
B|-1-------1-------1-------|-2-------2-------2-------|-1-------1-------1-------|
G|---2---2---2---2---2---2-|---2---2---2---2---2---2-|---2---2---2---2---2---2-|
D|-----3-------3-------3---|-----3-------3-------3---|-----3-------3-------3---|
A|-------------------------|-------------------------|-------------------------|
E|-------------------------|-------------------------|-------------------------|

e|-------------------------|-------------------------|-------------------------|
B|-2-------2-------2-------|-1-------1-------1-------|-2-------2-------2-------|
G|---2---2---2---2---2---2-|---2---2---2---2---2---2-|---3---3---3---3---3---3-|
D|-----3-------3-------3---|-----3-------3-------3---|-----3-------3-------3---|
A|-------------------------|-------------------------|-------------------------|
E|-------------------------|-------------------------|-------------------------|

e|-------------------------|-------------------------|-------------------------|
B|-1-------1-------1-------|-2-------2-------2-------|-3-------3-------3-------|
G|---2---2---2---2---2---2-|---3---3---3---3---3---2-|---3---3---3---3---3---3-|
D|-----3-------3-------3---|-----3-------3-------3---|-----3-------3-------3---|
A|-------------------------|-------------------------|-------------------------|
E|-------------------------|-------------------------|-------------------------|

e|-------------------------|-------------------------|-------------------------|
B|-3-------3-------3-------|-3-------3-------3-------|-3-------3-------3-------|
G|---3---3---3---3---3---3-|---3---3---3---3---3---3-|---3---3---3---3---3---3-|
D|-----4-------4-------4---|-----3-------3-------3---|-----4-------4-------4---|
A|-------------------------|-------------------------|-------------------------|
E|-------------------------|-------------------------|-------------------------|

e|-------------------------|-------------------------|-------------------------|
B|-3-------3-------3-------|-4-------4-------4-------|-3-------3-------3-------|
G|---3---3---3---3---3---3-|---3---3---3---3---3---3-|---3---3---3---3---3---3-|
D|-----3-------3-------3---|-----4-------4-------4---|-----3-------3-------3---|
A|-------------------------|-------------------------|-------------------------|
E|-------------------------|-------------------------|-------------------------|

e|-------------------------|-------------------------|-------------------------|
B|-4-------4-------4-------|-4-------4-------4-------|-4-------4-------4-------|
G|---3---3---3---3---3---3-|---3---3---3---3---3---3-|---4---4---4---4---4---4-|
D|-----4-------4-------4---|-----5-------5-------5---|-----5-------5-------5---|
A|-------------------------|-------------------------|-------------------------|
E|-------------------------|-------------------------|-------------------------|

e|-------------------------|-------------------------|-------------------------|
B|-4-------4-------4-------|-4-------4-------4-------|-4-------4-------4-------|
G|---3---3---3---3---3---3-|---4---4---4---4---4---4-|---3---3---3---3---3---3-|
D|-----5-------5-------5---|-----5-------5-------5---|-----5-------5-------5---|
A|-------------------------|-------------------------|-------------------------|
E|-------------------------|-------------------------|-------------------------|

e|-------------------------|-------------------------|-------------------------|
B|-4-------4-------4-------|-4-------4-------4-------|-4-------4-------4-------|
G|---4---4---4---4---4---4-|---3---3---3---3---3---3-|---4---4---4---4---4---4-|
D|-----6-------6-------6---|-----5-------5-------5---|-----6-------6-------6---|
A|-------------------------|-------------------------|-------------------------|
E|-------------------------|-------------------------|-------------------------|

e|-------------------------|-------------------------|-------------------------|
B|-4-------4-------4-------|-4-------4-------4-------|-4-------4-------4-------|
G|---3---3---3---3---3---3-|---4---4---4---4---4---4-|---3---3---3---3---3---3-|
D|-----5-------5-------5---|-----6-------6-------6---|-----5-------5-------5---|
A|-------------------------|-------------------------|-------------------------|
E|-------------------------|-------------------------|-------------------------|

e|-------------------------|-------------------------|-------------------------|
B|-4-------4-------4-------|-4-------4-------4-------|-4-------4-------4-------|
G|---4---4---4---4---4---4-|---3---3---3---3---3---3-|---3---3---3---3---3---3-|
D|-----6-------6-------6---|-----5-------5-------5---|-----5-------5-------5---|
A|-------------------------|-------------------------|-------------------------|
E|-------------------------|-------------------------|-------------------------|

e|-------------------------|-------------------------|
B|-4-------4-------4-------|-4-------4-------4-------|
G|---3---3---3---3---3---3-|---3---3---3---3---3---3-|
D|-----5-------5-------5---|-----5-------5-------5---|
A|-------------------------|-------------------------|
E|-------------------------|-------------------------|

[SYNTH GUITAR]
e|--------------|-------------|-------------|-------------|
B|-------------|-------------|-------------|-------------|
G|---8---8---8-|-------------|-------------|-------------|
D|-------------|---9---9---9-|---8---8---8-|---8---8---8-|
A|-6---6---6---|-------------|-------------|-------------|
E|-------------|-7---7---7---|-6---6---6---|-6---6---6---|

e|-------------|-------------|-------------|-------------|
B|-------------|-------------|-------------|-------------|
G|---8---8---8-|-------------|-------------|-------------|
D|-------------|---9---9---9-|---6---6---6-|---6---6---6-|
A|-6---6---6---|-------------|-------------|-------------|
E|-------------|-7---7---7---|-4---4---4---|-4---4---4---|

e|-------------|-------------|-------------|-------------|
B|-------------|-------------|-------------|-------------|
G|---3---3---3-|-------------|-------------|-------------|
D|-------------|---4---4---4-|---3---3---3-|---3---3---3-|
A|-1---1---1---|-------------|-------------|-------------|
E|-------------|-2---2---2---|-1---1---1---|-1---1---1---|

e|-------------|-------------|-------------|-------------|
B|-------------|-------------|-------------|-------------|
G|---3---3---3-|-------------|---8---8---8-|---8---8---8-|
D|-------------|---4---4---4-|-------------|-------------|
A|-1---1---1---|-------------|-6---6---6---|-6---6---6---|
E|-------------|-2---2---2---|-------------|-------------|

e|-------------|-------------|-------------|-------------|
B|-------------|-------------|-------------|-------------|
G|-------------|-------------|---5---5---5-|---10--10--10|
D|---3---3---3-|---7---7---7-|-------------|-------------|
A|-------------|-------------|-3---3---3---|-8---8---8---|
E|-1---1---1---|-5---5---5---|-------------|-------------|

e|-------------|-------------|---13--13--13|---17--17--17|
B|---10--10--10|---13--13--13|-------------|-------------|
G|-------------|-------------|-10--10--10--|-14--14--14--|
D|-7---7---7---|-10--10--10--|-------------|-------------|
A|-------------|-------------|-------------|-------------|
E|-------------|-------------|-------------|-------------|

[ELECTRIC GUITAR](WITH OVERDRIVE)
e|-------------------|-------------------|-------------------|
B|-------------------|-------------------|-------------------|
G|-------------------|-------------------|-------------------|
D|-10-10-10-10-10-10-|-11-11-11-11-11-11-|-10-10-10-10-10-10-|
A|-8--8--8--8--8--8--|-8--8--8--8--8--8--|-8--8--8--8--8--8--|
E|-------------------|-------------------|-------------------|
PM-----------------------------------------------------------

e|-------------------|-------------------|-------------------|
B|-------------------|-------------------|-------------------|
G|-------------------|-------------------|-------------------|
D|-11-11-11-11-11-11-|-10-10-10-10-10-10-|-11-11-11-11-11-11-|
A|-8--8--8--8--8--8--|-8--8--8--8--8--8--|-8--8--8--8--8--8--|
E|-------------------|-------------------|-------------------|
PM-----------------------------------------------------------

e|-------------------|-------------------|-------------------|
B|-------------------|-------------------|-------------------|
G|-------------------|-------------------|-------------------|
D|-10-10-10-10-10-10-|--------------X-X--|-------------------|
A|-8--8--8--8--8--8--|--------------X-X--|-8--8--8--8--------|
E|-------------------|-------------------|------------X\\\\0-|
PM<<<<<<<<<<<<<<<<<<<

e|------|------|------|--------|---------------|-----------------|-------|------|
B|------|------|------|--------|---------------|-----------------|-------|------|
G|------|------|------|--------|---------------|-----------------|-------|------|
D|------|------|------|--------|---------------|-----------------|-------|------|
A|------|------|------|------X-|---------------|-----------------|-------|------|
E|-6\\\\|\2////|/6\\\\|\2////--|-13-----11--13-|-HB13----13---11-|-13--X-|-HB13-|

e|------|------|------|--------|---------------|-----------------|-------|----------|
B|------|------|------|--------|---------------|-----------------|-------|----------|
G|------|------|------|--------|---------------|-----------------|-------|----------|
D|------|------|------|--------|---------------|-----------------|-------|----------|
A|-6\\\\|\2////|/6\\\\|\2////X-|-10---8--8--10-|-HB10--HB10-10-8-|-10----|-HB10//X-X|
E|------|------|------|--------|---------------|-----------------|-------|----------|

e|------|------|------|--------|---------------|-----------------|-------|---------|
B|------|------|------|--------|---------------|-----------------|-------|---------|
G|------|------|------|--------|---------------|-----------------|-------|---------|
D|------|------|------|--------|---------------|-----------------|-------|---------|
A|------|------|------|--------|-15--13--13-15-|-HB15----15-15-13|-15----|-15///X-X|
E|-4\\\\|\0----|-4\\\\|\0------|---------------|-----------------|-------|---------|

e|------|------|------|--------|---------------|-----------------|-------|-------------------|
B|------|------|------|--------|---------------|-----------------|-------|-------------------|
G|------|------|------|--------|---------------|-----------------|-------|-------------------|
D|------|------|------|--------|-13--11--11-13-|-HB13----13-13-11|-13-13X|-141314131413141314|
A|------|------|------|--------|---------------|-----------------|------X|-------------------|
E|-4\\\\|\0----|-4\\\\|\0------|---------------|-----------------|------X|-------------------|

e|------|------|------|--------|---------------|-----------------|-------|----------|
B|------|------|------|--------|---------------|-----------------|-------|----------|
G|------|------|------|--------|---------------|-----------------|-------|----------|
D|------|------|------|--------|-15--13--13-15-|-HB15----15-15-13|-15-15X|-16~~X\\--|
A|-4\\\\|\0----|-4\\\\|\0------|---------------|-----------------|------X|----------|
E|------|------|------|--------|---------------|-----------------|------X|--------X-|

e|----------|----------|----------|----------|-------------|--------------|-------|------------------|
B|----------|----------|----------|----------|-------------|--------------|-------|------------------|
G|----------|----------|----------|----------|-15--13-13-15|HB15HB15-15-13|-15--15|HB15HB15HB15//X---|
D|----------|----------|----------|----------|-------------|--------------|-------|---------------X--|
A|----------|-5--5--5\\|----------|-5--5--5//|-------------|--------------|-------|---------------X--|
E|-2---2//4-|----------|\2---2//4-|----------|-------------|--------------|-------|---------------X-0|

e|-------|-------|-------------|---------------|--------------|-------------|
B|-------|-------|-16-14-14-16-|-HB16--16-16-14|-16--14-14-16-|-HB16---16---|
G|-------|-------|-------------|---------------|--------------|-------------|
D|-------|-------|-------------|---------------|--------------|-------------|
A|-2-----|-2-----|-------------|---------------|--------------|-------------|
E|-----3-|-----3-|-------------|---------------|--------------|-------------|

e|-14-12-12-14-|-HB14-14-14-12-|-14--12-12--14-|-HB14----14---|
B|-------------|---------------|---------------|--------------|
G|-------------|---------------|---------------|--------------|
D|-------------|---------------|---------------|--------------|
A|-------------|---------------|---------------|--------------|
E|-------------|---------------|---------------|--------------|

e|-19--19-19-19|-19---------22-|-HB22-HB22-HB22|-HB21---------|
B|-------------|---------------|---------------|--------------|
G|-------------|---------------|---------------|--------------|
D|-------------|---------------|---------------|--------------|
A|-------------|---------------|---------------|--------------|
E|-------------|---------------|---------------|--------------|

e|--------|------|------|------|------|------|-0-----|
B|-HB18---|-19---|-19---|-19---|-19---|-19---|-1-----|
G|--------|------|------|------|------|------|-0-----|
D|--------|------|------|------|------|------|-2-----|
A|--------|------|------|------|------|------|-2-----|
E|--------|------|------|------|------|------|-------|

[STARLIGHT - Muse]
[Verse 1]
(piano)
(Starts on bar 5 repeats twice)
(then on bar 28)(twice through)

[Part 1]
e|--11----11-12----12-11--11---11-12----12-11----|
B|----12-------14-------14--12------12--------14-|
G|------11-------13-----------13------13---------|
D|-----------------------------------------------|
A|-----------------------------------------------|
E|-----------------------------------------------|

[after second piano part]

[Part 2]
e|--7---7---7---7---7---7--7---7----7---7---7----|
B|----7---7---5---5---5--4---4---4/5--5---5------|
G|-----------------------------------------------|
D|-----------------------------------------------|
A|-----------------------------------------------|
E|-----------------------------------------------|

[Pre-Chorus]
e|-----------------------------------------------|
B|-----------------------------------------------|
G|--6-6-66x----------8-8-88x---------------------|
D|--6-6-66x-4-4-4-44-8-8-88x-6-6-6-66-7-7-77x----|
A|--4-4-44x-4-4-4-44-6-6-66x-6-6-6-66-7-7-77x----|
E|----------2-2-2-22---------4-4-4-44-5-5-55x----|

e|-----------------------------------------------|
B|-----------------------------------------------|
G|-------------------8-8-8-88--------------------|
D|--2-2-2-22-7-7-77x-8-8-8-88--------------------|
A|--2-2-2-22-7-7-77x-6-6-6-66--------------------|
E|--0-0-0-00-5-5-55x-----------------------------|

[Chorus]
e|--7-------7-------6-----6----7----7------------|
B|----9---9---9---9---9-----8----9----9----------|
G|------8-------8-------8-----8----9----9--------|
D|-----------------------------------------------|
A|-----------------------------------------------|
E|-----------------------------------------------|

e|------7----------------------------------------|
B|----7---7---5---5------------------------------|
G|--11------9---9--------------------------------|(repeat 3 times)
D|-----------------------------------------------|
A|-----------------------------------------------|
E|-----------------------------------------------|

e|--7-------7-------6-----6----7----7----9----9-----|
B|----9---9---9---9---9-----8----9----9---11---11---|
G|------8-------8-------8-----8----9----9---11---11-|
D|--------------------------------------------------|
A|--------------------------------------------------|
E|--------------------------------------------------|

e|-----------------------------------------------|
B|------------------(bend this note slowly to 8)-|
G|-----------------6-6-6-6-6-6-8-----------------|
D|-----------------------------------------------|
A|--7-7-7-7-7-7-7-7------------------------------|
E|-----------------------------------------------|

[Pre-Chorus]
e|-----------------------------------------------|
B|-------------------8-8-88x---------------------|
G|--6-6-66x----------8-8-88x---------------------|
D|--6-6-66x-4-4-4-44-8-8-88x-9-6------7-7-77x----|
A|--4-4-44x-4-4-4-44-6-6-66x-----6--6-7-7-77x----|
E|----------2-2-2-22------------------5-5-55x----|

e|-----------------------------------------------|
B|-------------------8-8-8-88--------------------|
G|-------------------8-8-8-88--------------------|
D|--2-2-2-22-7-7-77x-8-8-8-88--------------------|
A|--2-2-2-22-7-7-77x-6-6-6-66--------------------|
E|--0-0-0-00-5-5-55x-----------------------------|

[Chorus]
e|-------------------------------------------|
B|--4-4-4-4-8-8-8-8-9-9-9-9------------------|
G|--4-4-4-4-8-8-8-8-9-9-9-9-8-8-8-8----------|(repeat x 2)
D|--6-6-6-6-8-8-8-8-9-9-9-9-9-9-9-9----------|
A|--6-6-6-6-6-6-6-6-7-7-7-7-9-9-9-9----------|
E|--4-4-4-4-----------------7-7-7-7----------|

e|---------------------------------------------|
B|--44444444-88888888-99999999-----------------|
G|--44444444-88888888-99999999-88888888--------|
D|--66666666-88888888-99999999-99999999--------|
A|--66666666-66666666-77777777-99999999--------|
E|--44444444-66666666-77777777-77777777--------|

e|----------------------------------------------|
B|--44444444-88888888-99999999------------------|
G|--44444444-88888888-99999999-1111111111111111-|
D|--66666666-88888888-99999999-1111111111111111-|
A|--66666666-66666666-77777777-9-9-9-9-9-9-9-9--|
E|--44444444-66666666-77777777------------------|

[SUPERMASSIVE BLACK HOLE - Muse]
Tuning: Standard

[Intro]
e|----------------------------|
B|----------------------------|
G|----------------------------|
D|----------------------------| x3
A|----10b----------10b--------|
E|-0------0--0-0-0-----0--0-0-|

e|--------------------------------------|
B|--------------------------------------|
G|------------------------2(4)2-0h2p0---|
D|------------------------------------2-|
A|----10b----------10b------------------|
E|-0------0--0-0-0-----0----------------|

[Main Riff/Verse 1]
e|---------------------------------------------------------------------|
B|---------------------------------------------------------------------|
G|---------------------------------------------------------------------|
D|---------------------------------------------------------------------|
A|----10b--------------10b-----7-7-5----10b--------------10b-----7-7-8-|
E|-0------0-0-3-3-3-0------0-0-5-5-3-0------0-0-3-3-3-0------0-0-5-5-6-|

e|-------------------------------------------------------------|
B|-------------------------------------------------------------|
G|-------------------------------------------------------------|
D|-------------------------------------------------------------|
A|----10b--------------10b-----7-7-5----10b--------------10b---|
E|-0------0-0-3-3-3-0------0-0-5-5-3-0------0-0-3-3-3-0------0-|

e|---------------|
B|---------------|
G|-2(4)2-0h2p0---|
D|-------------2-|
A|---------------|
E|---------------|

[Pre-Chorus]
e|-----------------------------------------------------------------|
B|-----------------------------------------------------------------|
G|-----------------------------------------------------------------|
D|-----7-----7-7-------5---------------9-----8-7-5-----------------|
A|-----------------------------------------------------------------|
E|-5-5---5-5-----4-3-3---3-3-5-5-6-7-7---7-7-------0-0-0-2-2-3-3-4-|

e|-----------------------------------------------------------------|
B|-----------------------------------------------------------------|
G|-----------------------------------------------------------------|
D|-----7-----7-7-------5---------------9-----8-7-5-----------------|
A|---------------------------------------------------2---4---5---6-|
E|-5-5---5-5-----4-3-3---3-3-5-5-6-7-7---7-7---------0---2---3---4-|

[Chorus]
e|-----------------------------------------------------------------|
B|-----------------------------------------------------------------|
G|-----------------------------------------------------------------|
D|-----7-----7-7-------5---------------9-----8-7-5-----------------|
A|-----------------------------------------------------------------|
E|-5-5---5-5-----4-3-3---3-3-5-5-6-7-7---7-7-------0-0-0-2-2-3-3-4-|

e|-----------------------------------------------------------------|
B|-----------------------------------------------------------------|
G|-----------------------------------------------------------------|
D|-----7-----7-7-6-----5---------------9-----8-7-5-----------------|
A|-----------------------------------------------------------------|
E|-5-5---5-5-------3-3---3-3-5-5-6-7-7---7-7---------7-7-6-5-5-3-2-|

[Verse 2]
e|---------------------------------------|
B|---------------------------------------|
G|---------------------------------------|
D|---------------------------------------|
A|---------------------------------------|
E|-0~------------------0~----------------|

e|--------------------------------------------------------------------|
B|--------------------------------------------------------------------|
G|--------------------------------------------------------------------|
D|--------------------------------------------------------------------|
A|----10b--------------10b-----7-7-5----10b--------------10b----------|
E|-0------0-0-3-3-3-0------0-0-5-5-3-0------0-0-3-3-3-0------0~-------|

[Pre-Chorus]
[Chorus]

[Interlude]
e|----------------------------|
B|----------------------------|
G|----------------------------|
D|----------------------------| x3
A|----10b----------10b--------|
E|-0------0--0-0-0-----0--0-0-|

e|----------------------------|
B|----------------------------|
G|----------------------------|
D|----------------------------|
A|----10b----------10b--------|
E|-0------0--0-0-0-----0~-----|

[Solo](Played Over Main Riff)
e|-------------------------------------------------------|
B|-------------10bu-----10h12p10h12p10h12p10h12p10bu~----|
G|-/4---/14\12-------x-----------------------------------|
D|-------------------x-----------------------------------|
A|-------------------------------------------------------|
E|-------------------------------------------------------|

e|--------------------------|
B|-12bu-/10---15-------(18)-|
G|------------17bu(19)------|
D|--------------------------|
A|--------------------------|
E|--------------------------|

[Pre-Chorus]
e|-----------------------------------------------------------------|
B|-----------------------------------------------------------------|
G|-----------------------------------------------------------------|
D|-----7-----7-7-------5---------------9-----8-7-5-----------------|
A|-----------------------------------------------------------------|
E|-5-5---5-5-----4-3-3---3-3-5-5-6-7-7---7-7-------0-0-0-2-2-3-3-4-|

e|-----------------------------------------------------------------|
B|-----------------------------------------------------------------|
G|-----------------------------------------------------------------|
D|-----7-----7-7-------5---------------9-----8-7-5-----------------|
A|---------------------------------------------------2---4---5---6-|
E|-5-5---5-5-----4-3-3---3-3-5-5-6-7-7---7-7---------0---2---3---4-|

[Chorus]
e|-----------------------------------------------------------------|
B|-----------------------------------------------------------------|
G|-----------------------------------------------------------------|
D|-----7-----7-7-------5---------------9-----8-7-5-----------------|
A|-----------------------------------------------------------------|
E|-5-5---5-5-----4-3-3---3-3-5-5-6-7-7---7-7-------0-0-0-2-2-3-3-4-|

e|-----------------------------------------------------------------|
B|-----------------------------------------------------------------|
G|-----------------------------------------------------------------|
D|-----7-----7-7-6-----5---------------9-----8-7-5-----------------|
A|-----------------------------------------------------------------|
E|-5-5---5-5-------3-3---3-3-5-5-6-7-7---7-7---------7-7-6-5-5-3-2-|

[Outro]
[Interlude]
(‘Supermassive Black Hole’)
e|----------------------------|
B|----------------------------|
G|----------------------------|
D|----------------------------| x3
A|----10b----------10b--------|
E|-0------0--0-0-0-----0--0-0-|

e|----------------------------|
B|----------------------------|
G|----------------------------|
D|----------------------------| (*represents harmonic. Best played on
A|----10b----------10b----x*--|    the third frets)
E|-0------0--0-0-0-----0--x*--|

[MAP OF THE PROBLEMATIQUE - Muse]
[Tuning: eBGDAC](Drop C)

[Intro 1]
e|-----------------------------------------|
B|-----------------------------------------|
G|-----------------------------------------|
D|-----------------------------------------|
A|--15-15----15-15------15-15-----15-15----|
C|-0---------0-----------0-----------0-----|

[Intro 2]
e|----------------------------------|
B|----------------------------------|
G|----------------------------------|
D|----------------------------------|
A|-15-15---13-13---18-18---15-15----|
C|-0-0---15-15---20-20---17-17------|

(This is the riff played over the second intro above that you may recognize)
e|----------------------------------------------------------------|
B|----------------------------------------------------------------|
G|-5-5-5-5-5-5-5-5-5-5-5-5/7-7-7/8-8-8-8-8-8-8-8-8-8-8-8-8-8------|(e.t.c.)
D|----------------------------------------------------------------|
A|----------------------------------------------------------------|
C|----------------------------------------------------------------|

e|---------------------------------------------------------------|
B|---------------------------------------------------------------|
G|-8-8-8-8-8--7-5-7-7-7-7-7--5-3-5-5-5-5-5--3-1-1-1-1-1-1--0-----|(x2)
D|---------------------------------------------------------------|
A|---------------------------------------------------------------|
C|---------------------------------------------------------------|

e|-0----x----x----x--|
B|-1----3----x----x--|
G|-0----3----x----x--|
D|-1----3----6----3--|
A|-3----1----6----3--|
C|-0----x----8----5--|
  Cm    Bb   G#   Fm

[SOLDIERS POEM - Muse]
[Capo at the second fret]

e|--------0---------|
B|------1---1-------|
G|----0-------------|
D|------------------|     x4
A|--3---------------|
E|------------------|

(Throw it all....                                ...away, let's lose...)
e|--------0-----------0------------1----------1----------1-----------1-----|
B|------1---1-------1---1--------0---0------0---0------1---1--------1--1---|
G|----0------0----0-------0----0-------0--0------0---1-------1----1-----1--|
D|-------------------------------------------------------------------------|
A|--3----------3-----------------------------------------------------------|
E|--------------------------3-----------3----------1------------1----------|

(...ourselves)
e|---------0------------0--------|
B|-------1---1--------0---0------|
G|-----0-------0----1------------|
D|-------------------------------|
A|---3---------------------------|
E|----------------0--------------|

(...Cause there's no one  left   for   us   to)
e|--------0----------0---------1-----------1--------------|
B|------1---1------1---1-----3---3-------3---3------------|
G|----2----------2---------2-------2---2-------2----------|
D|-----------------------0-----------0--------------------|
A|--0----------0------------------------------------------|
E|--------------------------------------------------------|

(...Blame, it's a shame       we're all dying)
e|--------1------------3------------1-----------1-----------|
B|------3---3--------2---2--------1---1-------1---1---------|
G|----2-------2----2-------2----2-------2---2-------2-------|
D|--0-------------------------------------------------------|
A|---------------0------------------------------------------|
E|----------------------------1-----------1-----------------|

(...And do yo think you deserve your freedom?)
e|---------3-----------3------------3-----------3-----------|
B|-------3---3-------3---3--------3---3-------3---3---------|
G|-----4-------4---4------4-----4-------4---4-------4-------|
D|----------------------------------------------------------|
A|----------------------------------------------------------|
E|---3-----------3------------3-----------3-----------------|

[The second verse it's played the same way]
How could you send us all far away from home
When you know damn well that this is all
I would still lay down my life for you
And do you think you deserve your freedom)

(Then the las part of the song)

(...No          ..I   don't      think you)
e|----------0-----------0-----------0-----------0--------|
B|--------1---1-------1---1-------3---3-------3---3------|
G|------0-------0---2-------2---0-------0---0-------0----|
D|-------------------------------------------------------|
A|----3-----------0--------------------------------------|
E|----------------------------3-----------3--------------|

(...do                        ...There's no justice)
e|--------0-----------0------------1----------1-------|
B|------1---1-------1---1--------1---1------1---1-----|
G|----2-------2---2-------2----2------2---2-------2---|
D|----------------------------------------------------|
A|--0-----------0-------------------------------------|
E|---------------------------1----------1-------------|

(...in                       the         world)
e|--------1-----------1------------0-----------0-------|
B|------1---1-------1---1--------1---1-------1---1-----|
G|----2-------2---1-------1----0-------0---0-------0---|
D|-----------------------------------------------------|
A|---------------------------3-----------3-------------|
E|--1-----------1--------------------------------------|

(...There's no justice in the world)
e|--------1-----------1-----------3----------3----------|
B|------1---1-------1---1-------3---3------3---3--------|
G|----2-------2---2-------2---4------4---4-------4------|
D|------------------------------------------------------|
A|------------------------------------------------------|
E|--1-----------1-----------3----------3----------------|

(...And there never was)
e|----------0-----------|    e|--3--|
B|--------1---1---------|    B|--1--|
G|------0-------0-------|(x4)G|--0--|
D|----------------------|    D|--2--|
A|----3-----------------|    A|--3--|
E|----------------------|    E|-----|

[INVINCIBLE - Muse]
[Tuning: Standard]
(Intro-Starts with echoed/reverb effects, then this comes in-)
e|----------------------------------------------------------------------|
B|-17\8-8-8/17\8-8-8/18\10-10-10/18\10-10-10/18\12-12-12/18\12/13/15/17-|
G|----------------------------------------------------------------------|
D|----------------------------------------------------------------------|
A|----------------------------------------------------------------------|
E|----------------------------------------------------------------------|

[Verse-Bass](Guitar Plays nothing)
G|---------------------------------------------------------|
D|-----------------------------33333--33333--33333--33333--|
A|-33333--33333--33333--33333------------------------------|
E|---------------------------------------------------------|

G|---------------------------------------------------------|
D|--------------55555--55555-----------------77777--77777--|
A|-55555--55555----------------77777--77777----------------|
E|---------------------------------------------------------|

G|---------------------------------------------------------|
D|---------------55555--55555------------------------------|
A|-88888--88888----------------33333--33333--33333--33333--|
E|---------------------------------------------------------|

G|---------------------------------------------------------|
D|----------------------00002--33333--33333--33333--33332--|
A|-33333--33333--33333-------------------------------------|
E|---------------------------------------------------------|

G|---------------------------------------------------------|
D|---------------55555--5555--------------6--77777--77775--|
A|-55555--55558-------------8--77777--7777-----------------|
E|---------------------------------------------------------|

G|---------------------------------------------------------|
D|---------------------------------------------------------|
A|-88888--88885/----------------33333--33333--33333--33333-|
E|----------------33333--33333-----------------------------|

[Chorus](clean)
e|--8~----10~----8~-----8~----13~----10~----12~----12~----13~----15~----|
B|-10~----12~----8~----10~----15~----12~----12~----13~----13~----15~----|
G|-10~----12~----9~----10~----14~----12~----13~----14~----14~----16~----|
D|--------------10~-----------12~---------------------------------------|
A|----------------------------------------------------------------------|
E|----------------------------------------------------------------------|

[Bridge]
e|-(8)----------------------------------------------------------------------|
B|-(8)-17\8-8-8/17\8-8-8/18\10-10-10/18\10-10-10/18\12-12-12/18\12/13/15/17-|
G|-(9)----------------------------------------------------------------------|
D|(10)----------------------------------------------------------------------|
A|--------------------------------------------------------------------------|
E|--------------------------------------------------------------------------|

[Verse 2]
e|----------|   |----------|   |------1---|   |----------|   |------0---|
B|------1---|   |------1---|   |---3-3-3--|   |------3---|   |---0-0-0--|
G|---0-0-0--|x4 |---2-2-2--|x4 |--2-2---2-|x2 |---0-0-0--|x2 |--1-1---1-|x2
D|--2-2---2-|   |--3-3---3-|   |-0--------|   |--0-0---0-|   |-2--------|
A|-3--------|   |-3--------|   |----------|   |-2--------|   |----------|
E|----------|   |----------|   |----------|   |----------|   |----------|

e|------0---|   |----------|   |----------|
B|---1-1-1--|   |------1---|   |------3---|
G|--2-2---2-|x2 |---2-2-2--|x2 |---0-0-0--|x2
D|-2--------|   |--3-3---3-|   |--0-0---0-|
A|----------|   |-3--------|   |-2--------|
E|----------|   |----------|   |----------|

[Pre Chorus]
e|----------|
B|------1---|
G|---0-0-0--|x4
D|--2-2---2-|
A|-3--------|
E|----------|

[Chorus]
e|-----------8-----|   |-----------10-----|   |-------8---|
B|-----10--10-10---|   |-----12--12--12---|   |----8-8-8--|
G|---10--10-----10-|x2 |---12--12------12-|x2 |---9-9---9-|x2
D|-10--------------|   |-12---------------|   |-10--------|
A|-----------------|   |------------------|   |-----------|
E|-----------------|   |------------------|   |-----------|

e|-----------8-----|   |-----------13-----|   |-----------15-----|
B|-----10--10-10---|   |-----15--15--15---|   |-----15--15--15---|
G|---10--10-----10-|x2 |---14--14------14-|x2 |---16--16------16-|x2
D|-10--------------|   |-12---------------|   |-17---------------|
A|-----------------|   |------------------|   |------------------|
E|-----------------|   |------------------|   |------------------|

e|-----------12-----|   |-----------12-----|   |-----------13-----|
B|-----12--12--12---|   |-----13--13--13---|   |-----13--13--13---|
G|---13--13------13-|x2 |---14--14------14-|x2 |---14--14------14-|x2
D|-14---------------|   |-14---------------|   |-15---------------|
A|------------------|   |------------------|   |------------------|
E|------------------|   |------------------|   |------------------|

e|-----------15-----|   |--8~--|
B|-----15--15--15---|   |--8~--|
G|---16--16------16-|x2 |--9~--|
D|-17---------------|   |-10~--|
A|------------------|   |------|
E|------------------|   |------|

[Interlude]
[Bass Riff]
G|-------5-----3-----------------3-------------------------------------|
D|-2-----------------6-----5---------6-----5-----3-----6-----5---3-----|
A|---3-3---3-3---3-3---3-3---3-3---3---3-3---3-3---3-3---3-3---3---3---|
E|---------------------------------------------------------------------|

[Guitar]
e|---------------------------------------------------------------------|
B|-x-x-x-x-x-x-x-x-x-x-x-x-x-x-x-x-x-x-x-x-x-x-x-x-x-x-x-x-x-x-x-x-x-x-|
G|-x-x-x-x-x-x-x-x-x-x-x-x-x-x-x-x-x-x-x-x-x-x-x-x-x-x-x-x-x-x-x-x-x-x-|
D|-x-x-x-x-x-x-x-x-x-x-x-x-x-x-x-x-x-x-x-x-x-x-x-x-x-x-x-x-x-x-x-x-x-x-|
A|---------------------------------------------------------------------|
E|---------------------------------------------------------------------|

e|-----------------------------------------------------------|
B|-----------------------------------------------------------|
G|-5-----5-----5-----5---5-5-5-----5-----5-----5-----5---5-5-|
D|-----------------------------------------------------------|
A|---3-3---3-3---3-3---3-------3-3---3-3---3-3---3-3---3-----|
E|-----------------------------------------------------------|

e|-----------------------------------------------------------|
B|-----------------------------------------------------------|
G|-5-----5-----5-----5---5-5-5-----5-----5-----5---5//////16-|
D|-----------------------------------------------------------|
A|---3-3---3-3---3-3---3-------3-3---3-3---3-3---3-----------|
E|-----------------------------------------------------------|

[Solo-The * shows the notes which are hammered with the right hand]
    *              *              *              *
e|-h15p-3p1p0h1p0-h13p-3p1p0h1p0-h12p-3p1p0h1p0-h13p-0h3p0-h15p-0h5p0-|
B|--------------------------------------------------------------------|
G|--------------------------------------------------------------------|
D|--------------------------------------------------------------------|
A|--------------------------------------------------------------------|
E|--------------------------------------------------------------------|
    *              *              *              *          *
e|-h17p-5p3p0h3p0-h15p-5p3p0h3p0-h13p-5p3p0h3p0-h15p-0h5p0-h17p-0h5p0-|
B|--------------------------------------------------------------------|
G|--------------------------------------------------------------------|
D|--------------------------------------------------------------------|
A|--------------------------------------------------------------------|
E|--------------------------------------------------------------------|
    *               *         *          *              *          *
e|-h17p-5p3p0h3p0-h15p-0h3p0-h17p-0h3p0-h19p-7p5p0h1p0-h17p-0p5h0-h19p-|
B|---------------------------------------------------------------------|
G|---------------------------------------------------------------------|
D|---------------------------------------------------------------------|
A|---------------------------------------------------------------------|
E|---------------------------------------------------------------------|
          *              *          *          *              *
e|-0h5p0-h19p-7p5p0h1p0-h17p-0p5h0-h19p-0h5p0-h20p-8p7p0h7p0-h19p-0h7p0-|
B|----------------------------------------------------------------------|
G|----------------------------------------------------------------------|
D|----------------------------------------------------------------------|
A|----------------------------------------------------------------------|
E|----------------------------------------------------------------------|
    *          *              *          *          *
e|-h20p-0h7p0-h20p-8p7p0h7p0-h19p-0h7p0-h20p-0h7p0-h22p-3p1p0h1p0-10^bu-|
B|----------------------------------------------------------------------|
G|----------------------------------------------------------------------|
D|----------------------------------------------------------------------|
A|----------------------------------------------------------------------|
E|----------------------------------------------------------------------|

e|-10^^bu~~~~~~(effects come in)---------------------------------|
B|---------------------------------------------------------------|
G|---------------------------------------------------------------|
D|---------------------------------------------------------------|
A|---------------------------------------------------------------|
E|---------------------------------------------------------------|

[Chorus](Overdrive)
e|--8~----10~----8~-----8~----13~----10~----12~----12~----13~----15~----|
B|-10~----12~----8~----10~----15~----12~----12~----13~----13~----15~----|
G|-10~----12~----9~----10~----14~----12~----13~----14~----14~----16~----|
D|--------------10~-----------12~---------------------------------------|
A|----------------------------------------------------------------------|
E|----------------------------------------------------------------------|

[Outro]
e|------------------------------------------|
B|------------------------------------------|
G|-5555~5555~5555~5555~5555~5555~5555~5555/-|
D|-xxxx-xxxx-xxxx-xxxx-xxxx-xxxx-xxxx-xxxx--|
A|-3333~3333~3333~3333~3333~3333~3333~3333/-|
E|------------------------------------------|

[ASSASSIN - Muse]

[Intro](part 1)x2
 (clean)
e|------------------------------------------------------|
B|-3-3-2-2-3-3-2-2-3-3-2-2-3-3-2-2-3-3-2-2-3-3-2-2------|
G|-3-3-2-2-3-3-2-2-3-3-2-2-3-3-2-2-3-3-2-2-3-3-2-2------|
D|------------------------------------------------------|
A|------------------------------------------------------|
E|------------------------------------------------------|

e|------------------------------------------------------|
B|-4-4-3-3-4-4-3-3-4-4-3-3-4-4-3-3-4-4-3-3-4-4-3-3------|
G|-3-3-0-0-3-3-0-0-3-3-0-0-3-3-0-0-3-3-0-0-3-3-0-0------|
D|------------------------------------------------------|
A|------------------------------------------------------|
E|------------------------------------------------------|

[Intro](part 2)x2
  pm. . . . . . . . . . . . . . . . . . . . . . . . . . . . . . . . . . . .
e|---------------------------------------------------------------------------|
B|---------------------------------------------------------------------------|
G|---------------------------------------------------------------------------|
D|---------------------------------------------------------------------------|
A|---------------------------------------------------------------------------|
E|-8-7-7-8-7-7-8-7-7-8-7-7-8-7-7-8-7-7-8-5-5-8-5-5-8-5-5-8-5-5-8-5-5-8-5-5---|

[guitar 2]
      .  .  .  .  .      .  .  .  .  .   .  .  . . .     .  .  . . .(staccato)
e|----------------------------------------------------------------------|
B|---10-11-10-11-10-----10-11-10-11-10---8--8--8-8-8-----8--8--8-8-8----|
G|----------------------------------------------------------------------|
D|----------------------------------------------------------------------|
A|----------------------------------------------------------------------|
E|----------------------------------------------------------------------|

            [Intro](part 3)(x2)
e|---------|---------------------------------------------------------------------------------|
B|---------|---------------------------------------------------------------------------------|
G|--drum---|---------------------------------------------------------------------------------|
D|--fill---|---------------------------------------------------------------------------------|
A|---------|--------------------------------------------------------------------8-8-8--------|
E|---------|--8-0-0-8-0-0-8-0-0-8-0-0-8-0-0-8-0-0-8-0-0-8-0-0-8-0-0-8-0-0-8-0-0-8-8-8--------|

[Verse 1]
(riff x2)
e|-------------------------------------------------------------------------------------|
B|-------------------------------------------------------------------------------------|
G|-------------------------------------------------------------------------------------|
D|-------------------------------------------------------------------------------------|
A|--8p5-5-5-5-5-(x7)--8p7-7-7-7-7-(x6)--8h10-10-10-10-10-(x7)--10h12-12-12-12-12-(x5)--|
E|-------------------------------------------------------------------------------------|

[Chorus x2]
e|------------------------------------------------------------------------------|
B|------------------------------------------------------------------------------|
G|------------------------------------------------------------------------------|
D|------------------------------------------------------------------------------|
A|------------------------------------------------------------------------------|
E|-7p3-3-3-3-3-(x9)--9h10-10-10-10-10-(x3)--8p5-5-5-5-5-(x9)--8p0-0-0-0-0-(x3)--|

[Link(part 1)x1.5]
  pm. . . . . . . . . . . . . . . . . . . . . . . . . . . . . . . . . . . .
e|---------------------------------------------------------------------------|
B|---------------------------------------------------------------------------|
G|---------------------------------------------------------------------------|
D|---------------------------------------------------------------------------|
A|---------------------------------------------------------------------------|
E|-8-7-7-8-7-7-8-7-7-8-7-7-8-7-7-8-7-7-8-5-5-8-5-5-8-5-5-8-5-5-8-5-5-8-5-5---|

[guitar2]
      .  .  .  .  .      .  .  .  .  .   .  .  . . .     .  .  . . .(staccato)
e|----------------------------------------------------------------------|
B|---10-11-10-11-10-----10-11-10-11-10---8--8--8-8-8-----8--8--8-8-8----|
G|----------------------------------------------------------------------|
D|----------------------------------------------------------------------|
A|----------------------------------------------------------------------|
E|----------------------------------------------------------------------|

            [Link](part 2)(x2)
e|---------|---------------------------------------------------------------------------------|
B|---------|---------------------------------------------------------------------------------|
G|--drum---|---------------------------------------------------------------------------------|
D|--fill---|---------------------------------------------------------------------------------|
A|---------|--------------------------------------------------------------------8-8-8--------|
E|---------|--8-0-0-8-0-0-8-0-0-8-0-0-8-0-0-8-0-0-8-0-0-8-0-0-8-0-0-8-0-0-8-0-0-8-8-8--------|

[Verse 2]
e|-------------------------------------------------------------------------------------|
B|-------------------------------------------------------------------------------------|
G|-------------------------------------------------------------------------------------|
D|-------------------------------------------------------------------------------------|
A|--8p5-5-5-5-5-(x7)--8p7-7-7-7-7-(x6)--8h10-10-10-10-10-(x7)--10h12-12-12-12-12-(x5)--|
E|-------------------------------------------------------------------------------------|

[Chorus x2]
e|------------------------------------------------------------------------------|
B|------------------------------------------------------------------------------|
G|------------------------------------------------------------------------------|
D|------------------------------------------------------------------------------|
A|------------------------------------------------------------------------------|
E|-7p3-3-3-3-3-(x9)--9h10-10-10-10-10-(x3)--8p5-5-5-5-5-(x9)--8p0-0-0-0-0-(x3)--|

[Link]
      .  .  .  .  .   (staccato)
e|--------------------|
B|---10-11-10-11-10---|
G|--------------------|
D|--------------------|
A|--------------------|
E|--------------------|

[Outro]
[Link](part 1)x2
  pm. . . . . . . . . . . . . . . . . . . . . . . . . . . . . . . . . . . .
e|---------------------------------------------------------------------------|
B|---------------------------------------------------------------------------|
G|---------------------------------------------------------------------------|
D|---------------------------------------------------------------------------|
A|---------------------------------------------------------------------------|
E|-8-7-7-8-7-7-8-7-7-8-7-7-8-7-7-8-7-7-8-5-5-8-5-5-8-5-5-8-5-5-8-5-5-8-5-5---|

[guitar 2]
      .  .  .  .  .      .  .  .  .  .   .  .  . . .     .  .  . . .(staccato)
e|----------------------------------------------------------------------|
B|---10-11-10-11-10-----10-11-10-11-10---8--8--8-8-8-----8--8--8-8-8----|
G|----------------------------------------------------------------------|
D|----------------------------------------------------------------------|
A|----------------------------------------------------------------------|
E|----------------------------------------------------------------------|

[heavy pm] . . . . . . . . . . . . .
e|--------------------------------------|
B|--------------------------------------|
G|--------------------------------------|
D|----------------------------------0---|
A|----------------------------------0---|
E|--8-7-0-7-6-0-5-6-0-5-4-0-4-3-2-1-0---|

[EXO POLITICS - Muse]
[Standard Tuning]

[Intro and Verse 1]"Open skies over me..."
e|-------------------------------|
B|-------------------------------|
G|-------------------------------|
D|-------------------------------|(X4)
A|-5-5-5-3-5-7-8-8-7s8s7---------|
E|------------------------8------|

e|-----------------------------------------------|
B|-----------------------------------------------|
G|-----------------------------------------------|
D|-----------------------------------------------|
A|---------------------------------------5-3s5s3-|
E|--6-6-6-5-6-8-1-1-1-0-1-3-5-5-5-3-5-8----------|

e|----------------------------------------------------|
B|----------------------------------------------------|
G|----------------------------------------------------|
D|----------------------------------------------------|
A|----------------------------------------------------|
E|--6-6-6-5-6-8-1-1-1-0-1-3-5-5-5-3-5-8-5-5-5-(3-1-0)-|

e|-------------------------------|
B|-------------------------------|
G|-------------------------------|
D|-------------------------------|
A|-5-5-5-3-5-7-8-8-7s8s7---------|
E|------------------------8------|

e|-----------------------------------------------|
B|-----------------------------------------------|
G|-----------------------------------------------|
D|-----------------------------------------------|
A|---------------------------------------5-3s5s3-|
E|--6-6-6-5-6-8-1-1-1-0-1-3-5-5-5-3-5-8----------|


e|-----------------------------------------------------------------------|
B|-----------------------------------------------------------------------|
G|-----------------------------------------------------------------------|
D|-----------------------------------------------------------------------|
A|-----------------------------------------------------------------------|(5 slide down)
E|--6-6-6-5-6-8-1-1-1-0-1-3-5-5-5-3-5-8-5-5-5-(5-6-5-3-5-8---------------|

[Chorus]("When the zetas fill the skies..")
e|--------------------|
B|--------------------|
G|--7---5---10--15----|
D|--7---5---10--15----|
A|--5---3---8---13----|
E|--------------------|

e|-----------------------------|
B|-----------------------------|
G|-----------------------------|
D|-----------------------------|
A|--5---3---8---5-3-1-0-1-3-5--|
E|-----------------------------|

e|--------------------|
B|--------------------|
G|--7---5---10--15----|
D|--7---5---10--15----|
A|--5---3---8---13----|
E|--------------------|

e|-----------------------------|
B|-----------------------------|
G|-----------------------------|
D|-----------------------------|
A|--5---3---8---5-3-1-0-1-3-5--|
E|-----------------------------|

("And I've waited patiently")
e|-----------------------------------------------|
B|-----------------------------------------------|
G|-----------------------------------------------|
D|-----------------------------------------------|
A|---------------------------------------5-3s5s3-|
E|--6-6-6-5-6-8-1-1-1-0-1-3-5-5-5-3-5-8----------|


e|----------------------------------------------------|
B|----------------------------------------------------|
G|----------------------------------------------------|
D|----------------------------------------------------|
A|----------------------------------------------------|
E|--6-6-6-5-6-8-1-1-1-0-1-3-5-5-5-3-5-8-5-5-5-(3-1-0)-|

[Solo]
e|--------------------------------------|
B|--------------------------------------|
G|-14-12--------------------------------|
D|-------15-14-15--------15-14----------|
A|----------------15-12--------15-12-12-|
E|--------------------------------------|

e|-----------------------------------------------|
B|-----------------------------------------------|
G|-14-12-----------------------------------------|
D|-------15-14-15----------15-14-----------------|
A|----------------15--12---------15-12-10--12-13-|
E|-----------------------------------------------|

e|------------------------------------|
B|------------13----------------------|
G|--15-14-15------15-14---------------|
D|-----------------------15-14-11-11--|
A|------------------------------------|
E|------------------------------------|

e|----------------------------------------------------|
B|----------------------------------------------------|
G|-----14-12-14-15------------------------------------|
D|-------------------14-11---15h17h--15h17h--14-15----|
A|----------------------------------------------------|
E|----------------------------------------------------|

e|------------------------------------|
B|------------13----------------------|
G|--15-14-15------15-14---------------|
D|-----------------------15-14-11-11--|
A|------------------------------------|
E|------------------------------------|

e|----------------------------------|
B|----------------------------------|
G|--14------------------------------|
D|------14-14-17-17-15-15-14-14-----|
A|----------------------------------|
E|----------------------------------|

[Verse 2]"Carried through the centuries..."
e|-------------------------------|
B|-------------------------------|
G|-------------------------------|
D|-------------------------------|(X4)
A|-5-5-5-3-5-7-8-8-7s8s7---------|
E|------------------------8------|

[Chorus]("When the zetas fill the skies")
e|--------------------|
B|--------------------|
G|--7---5---10--15----|
D|--7---5---10--15----|
A|--5---3---8---13----|
E|--------------------|

e|-----------------------------|
B|-----------------------------|
G|-----------------------------|
D|-----------------------------|
A|--5---3---8---5-3-1-0-1-3-5--|
E|-----------------------------|

e|--------------------|
B|--------------------|
G|--7---5---10--15----|
D|--7---5---10--15----|
A|--5---3---8---13----|
E|--------------------|

e|-----------------------------|
B|-----------------------------|
G|-----------------------------|
D|-----------------------------|
A|--5---3---8---5-3-1-0-1-3-5--|
E|-----------------------------|

("I'm waiting patiently")
e|-----------------------------------------------|
B|-----------------------------------------------|
G|-----------------------------------------------|
D|-----------------------------------------------|
A|---------------------------------------5-3s5s3-|
E|--6-6-6-5-6-8-1-1-1-0-1-3-5-5-5-3-5-8----------|

e|----------------------------------------------------|
B|----------------------------------------------------|
G|----------------------------------------------------|
D|----------------------------------------------------|
A|----------------------------------------------------|
E|--6-6-6-5-6-8-1-1-1-0-1-3-5-5-5-3-5-8-5-5-5-(3-1-0)-|

[Outro]

[Guitar 1]
e|-------------------------------|
B|-------------------------------|
G|-------------------------------|(X2)
D|-------------------------------|
A|-5-5-5-3-5-7-8-8-7s8s7---------|
E|------------------------8------|

e|-------------------------------|
B|-------------------------------|
G|-------------------------------|
D|-3--5 (slide down guitar)------|
A|-------------------------------|
E|-------------------------------|

[Guitar 2]
e|---------|----------------|
B|---------|----------------|
G|---7-----|---5---7--------|
D|---7--x2-|---5---7--------|
A|---5-----|---3---5--------|
E|---------|----------------|

[CITY OF DELUSION - Muse]
Tuning: EADGBE

[Intro]
e|--x-x-x-x-x-x-x-x--|
B|--x-x-x-x-x-x-x-x--|
G|--x-x-x-x-x-x-x-x--|
D|--x-x-x-x-x-x-x-x--|
A|-------------------|
E|-------------------|

e|--1-1-1-1--0-0-0-0-0-0-0-0-0--|
B|--3-3-3-3--2-2-2-2-2-2-2-2-2--|
G|--2-2-2-2--2-2-2-2-2-2-2-2-2--|(X4)
D|--0-0-0-0--0-0-0-0-0-0-0-0-0--|
A|------------------------------|
E|------------------------------|

[Verse]
e|--1-1-1-1--0-0-0-0-0-0-0-0-0--|
B|--3-3-3-3--2-2-2-2-2-2-2-2-2--|
G|--2-2-2-2--2-2-2-2-2-2-2-2-2--|(X4)
D|--0-0-0-0--0-0-0-0-0-0-0-0-0--|
A|------------------------------|
E|------------------------------|

e|--1-1-1-1--3-3-3-3-3-3-3-3-3--1-1-1-1--6-6-6-6-6-6-6-6-6--|
B|--3-3-3-3--2-2-2-2-2-2-2-2-2--3-3-3-3--8-8-8-8-8-8-8-8-8--|
G|--2-2-2-2--2-2-2-2-2-2-2-2-2--2-2-2-2--7-7-7-7-7-7-7-7-7--|
D|--0-0-0-0--0-0-0-0-0-0-0-0-0--0-0-0-0--0-0-0-0-0-0-0-0-0--|
A|----------------------------------------------------------|
E|----------------------------------------------------------|

e|--1-1-1-1--3-3-3-3-3-3-3-3-3--1-1-1-1--0-0-0-0-0-0-0-0-0--|
B|--3-3-3-3--2-2-2-2-2-2-2-2-2--3-3-3-3--2-2-2-2-2-2-2-2-2--|
G|--2-2-2-2--2-2-2-2-2-2-2-2-2--2-2-2-2--2-2-2-2-2-2-2-2-2--|
D|--0-0-0-0--0-0-0-0-0-0-0-0-0--0-0-0-0--0-0-0-0-0-0-0-0-0--|
A|----------------------------------------------------------|
E|----------------------------------------------------------|

e|--0-0-0-0--3-3-3-3-3-3-3-3-3--0-0-0-0--3-3-3-3-3-3-3-3-3--|
B|--2-2-2-2--3-3-3-3-3-3-3-3-3--2-2-2-2--3-3-3-3-3-3-3-3-3--|
G|--2-2-2-2--3-3-3-3-3-3-3-3-3--2-2-2-2--3-3-3-3-3-3-3-3-3--|
D|--2-2-2-2--3-3-3-3-3-3-3-3-3--2-2-2-2--3-3-3-3-3-3-3-3-3--|
A|--0-0-0-0--0-0-0-0-0-0-0-0-0--0-0-0-0--0-0-0-0-0-0-0-0-0--|
E|----------------------------------------------------------|

e|--0-0-0-0-------------------------------------------------|
B|--2-2-2-2--2-2-2-2-2-2-2-2-2--3-3-3-3--2-2-2-2-2-2-2-2-2--|
G|--2-2-2-2--0-0-0-0-0-0-0-0-0--3-3-3-3--2-2-2-2-2-2-2-2-2--|
D|--2-2-2-2--2-2-2-2-2-2-2-2-2--3-3-3-3--2-2-2-2-2-2-2-2-2--|
A|--0-0-0-0--0-0-0-0-0-0-0-0-0--0-0-0-0--0-0-0-0-0-0-0-0-0--|
E|----------------------------------------------------------|

[REPEAT FROM START]
e|--1-1-1-1--0-0-0-0-0-0-0-0-0--|        |--1-x-1-x-1--|
B|--3-3-3-3--2-2-2-2-2-2-2-2-2--|        |--3-x-3-x-3--|
G|--2-2-2-2--2-2-2-2-2-2-2-2-2--|  X 3   |--2-x-2-x-2--|
D|--0-0-0-0--0-0-0-0-0-0-0-0-0--|        |--0-x-0-x-0--|
A|------------------------------|        |-------------|
E|------------------------------|        |-------------|

[CHORUS]

[Guitar 1]
E|------------------------------------------------------|
B|-----------10-10-10---10-10-10---10-10-10---10-10-10--|
G|------------------------------------------------------|
D|-----------7--7--7----7--7--7----7--7--7----7--7--7---|
A|------------------------------------------------------|
E|------------------------------------------------------|

[Guitar 2]
E|--x-x-x-x--8--8--8----9--9--9----10-10-10---5--5--5--|
B|--x-x-x-x--10-10-10---10-10-10---10-10-10---5--5--5--|
G|--x-x-x-x--10-10-10---9--9--9----10-10-10---6--6--6--|
D|--x-x-x-x--10-10-10---11-11-11---12-12-12---7--7--7--|
A|--x-x-x-x--8--8--8----12-12-12---12-12-12---7--7--7--|
E|--x-x-x-x--8--8--8----9--9--9----10-10-10---5--5--5--|

[Guitar 1]
E|---------------------------------------------|
B|--10-10-10---10-10-10---11-11-10---11-11-10--|
G|---------------------------------------------|
D|--7--7--7----7--7--7----8--8--7----8--8--7---|
A|---------------------------------------------|
E|---------------------------------------------|

[Guitar 2]
E|--3--3--3----1--1--1----0--0--0----5--5--5--|
B|--3--3--3----1--1--1----2--2--2----6--6--6--|
G|--3--3--3----2--2--2----2--2--2----7--7--7--|
D|--5--5--5----3--3--3----2--2--2----7--7--7--|
A|--5--5--5----3--3--3----0--0--0----5--5--5--|
E|--3--3--3----1--1--1------------------------|

[Guitar 1]
e|------------------------------------|
B|--10-x-10-x-10-x-10-10-10-10-10-10--|
G|------------------------------------|
D|--7--x-7--x-7--x-7--7--7--7--7--7---|
A|------------------------------------|
E|------------------------------------|

[Guitar 1]
E|---------------------------------------------------------------------|
B|--10-10-10-10-10---10-10-10-10-10--10-10-10-10-10---10-8-6-5b6r5-----|
G|---------------------------------------------------------------------|
D|--7--7--7--7--7----7--7--7--7--7---7--7--7--7--7----7--5-3-2------7--|
A|---------------------------------------------------------------------|
E|------------------------------------------------------------------5--|

[Guitar 2]
E|--10-10-10-10-10---8--8--8--8--8---5--5--5--5--5---------------|
B|--11-11-11-11-11---10-10-10-10-10--5--5--5--5--5---------------|
G|--12-12-12-12-12---10-10-10-10-10--6--6--6--6--6---------------|
D|--12-12-12-12-12---10-10-10-10-10--7--7--7--7--7---------------|
A|--10-10-10-10-10---8--8--8--8--8---7--7--7--7--7---------------|
E|-----------------------------------5--5--5--5--5---------------|

[Guitar 1]
E|---------------------------------------------|
B|--10-10-10---10-10-10---11-11-10---11-11-10--|
G|---------------------------------------------|
D|--7--7--7----7--7--7----8--8--7----8--8--7---|
A|---------------------------------------------|
E|---------------------------------------------|

[Guitar 2]
E|--3--3--3----1--1--1----0--0--0----5--5--5--|
B|--3--3--3----1--1--1----2--2--2----6--6--6--|
G|--3--3--3----2--2--2----2--2--2----7--7--7--|
D|--5--5--5----3--3--3----2--2--2----7--7--7--|
A|--5--5--5----3--3--3----0--0--0----5--5--5--|
E|--3--3--3----1--1--1------------------------|

[Guitar 1]
e|--------------------------------------------------------------------|
B|--10-x-10-x-10-x-x-10-10-10-10-10--10-x-10-x-10-x-x-10-10-10-10-10--|
G|--------------------------------------------------------------------|
D|--7--x-7--x-7--x-x-7--7--7--7--7---7--x-7--x-7--x-x-7--7--7--7--7---|
A|--------------------------------------------------------------------|
E|--------------------------------------------------------------------|

e|-------------------------------------------------------------------------|
B|--10-x-10-x-11-x-x-11-11-11-11-11--13-x-13-x-14-x-x-14-14-14-14-14--15\--|
G|-------------------------------------------------------------------------|
D|--7--x-7--x-8--x-x-8--8--8--8--8---10-x-10-x-11-x-x-11-11-11-11-11--12\--|
A|-------------------------------------------------------------------------|
E|-------------------------------------------------------------------------|

e|-----------------------------|
B|--x--x-x--x-x--x-x-x-x--x-x--|
G|-----------------------------|(X8)
D|--x--x-x--x-x--x-x-x-x--x-x--|
A|-----------------------------|
E|-----------------------------|

e|--------------------------|        |-----------------|
B|--10-x-10-x-10-x-x-10-10--|        |--10-x-10-x-10\--|
G|--------------------------| (X7)   |-----------------|
D|--7--x-7--x-7--x-x-7--7---|        |--7--x-7--x-7\---|
A|--------------------------|        |-----------------|
E|--------------------------|        |-----------------|

[REPEAT CHORUS]
e|--1-1-1-1--0-0-0-0-0-0-0-0-0--|
B|--3-3-3-3--2-2-2-2-2-2-2-2-2--|
G|--2-2-2-2--2-2-2-2-2-2-2-2-2--|(X8)
D|--0-0-0-0--0-0-0-0-0-0-0-0-0--|
A|------------------------------|
E|------------------------------|

e|--1-1-1-1--3-3-3-3-3-3-3-3-3--1-1-1-1--6-6-6-6-6-6-6-6-6--|
B|--3-3-3-3--5-5-5-5-5-5-5-5-5--3-3-3-3--8-8-8-8-8-8-8-8-8--|
G|--2-2-2-2--3-3-3-3-3-3-3-3-3--2-2-2-2--7-7-7-7-7-7-7-7-7--|
D|--0-0-0-0--0-0-0-0-0-0-0-0-0--0-0-0-0--0-0-0-0-0-0-0-0-0--|
A|----------------------------------------------------------|
E|----------------------------------------------------------|

e|--5-5-5-5--3-3-3-3-3-3-3-3-3--1-1-1-1--0-0-0-0-0-0-0-0-0--|
B|--6-6-6-6--5-5-5-5-5-5-5-5-5--3-3-3-3--2-2-2-2-2-2-2-2-2--|
G|--7-7-7-7--3-3-3-3-3-3-3-3-3--2-2-2-2--2-2-2-2-2-2-2-2-2--|
D|--0-0-0-0--0-0-0-0-0-0-0-0-0--0-0-0-0--0-0-0-0-0-0-0-0-0--|
A|----------------------------------------------------------|
E|----------------------------------------------------------|

e|--0-0-0-0--3-3-3-3-3-3-3-3-3--0-0-0-0--3-3-3-3-3-3-3-3-3--|
B|--2-2-2-2--3-3-3-3-3-3-3-3-3--2-2-2-2--3-3-3-3-3-3-3-3-3--|
G|--2-2-2-2--3-3-3-3-3-3-3-3-3--2-2-2-2--3-3-3-3-3-3-3-3-3--|
D|--2-2-2-2--3-3-3-3-3-3-3-3-3--2-2-2-2--3-3-3-3-3-3-3-3-3--|
A|--0-0-0-0--0-0-0-0-0-0-0-0-0--0-0-0-0--0-0-0-0-0-0-0-0-0--|
E|----------------------------------------------------------|

e|--0-0-0-0-------------------------------------------------|
B|--2-2-2-2--2-2-2-2-2-2-2-2-2--3-3-3-3--2-2-2-2-2-2-2-2-2--|
G|--2-2-2-2--0-0-0-0-0-0-0-0-0--3-3-3-3--2-2-2-2-2-2-2-2-2--|
D|--2-2-2-2--2-2-2-2-2-2-2-2-2--3-3-3-3--2-2-2-2-2-2-2-2-2--|
A|--0-0-0-0--0-0-0-0-0-0-0-0-0--0-0-0-0--0-0-0-0-0-0-0-0-0--|
E|----------------------------------------------------------|

e|--1-1-1-1--0-0-0-0-0-0-0-0-0--|        |--1-x-1-x-1--|
B|--3-3-3-3--2-2-2-2-2-2-2-2-2--|        |--3-x-3-x-3--|
G|--2-2-2-2--2-2-2-2-2-2-2-2-2--|  X 3   |--2-x-2-x-2--|
D|--0-0-0-0--0-0-0-0-0-0-0-0-0--|        |--0-x-0-x-0--|
A|------------------------------|        |-------------|
E|------------------------------|        |-------------|

[REPEAT CHORUS]

[HOODOO - Muse]

e|-------------------------------------------------------------------------|
B|-------------------------------------------------------------------------|
G|-------------3-----------------------------------------------------------|
D|-5h6p5-555-6---6-5-3-5h6p5-5-5-5h6-5-3-------3-5h6p5-----10////////0-----|
A|---------------------------------------6-5-6-----------------------------|
E|-------------------------------------------------------------------------|

e|-----------------------------------------------|
B|-----------------------------------------------|
G|-----------------------------------------------|
D|--5---------------------------------------6----|
A|--5---------------------------------------6----|
E|--3-x8 (listen to recording for  rhythm)--4-x--|8 (listen to recording for rhythm)

e|-----------------------------------------------|
B|-----------------------------------------------|
G|-----------------------------------------------|
D|--5---------------------------------------6----|
A|--5---------------------------------------6----|
E|--3-x8 (listen to recording for  rhythm)--4-x--|8 (listen to recording for rhythm)

e|--------------------------------------3-----------------------------------|
B|--------------------------------------4-----------------------------------|
G|--------------------------------------5-----------------------------------|
D|--5-----------------------------------5-----------------------------------|
A|--5---------------------------------3---(play chord with slow upstroke)---|
E|--3-(3 times)----3-----3-3-4-6-4-3----------------------------------------|

e|---------8-|--------------------|------|--------------------------|
B|--------8--|-----------------8--|---4~-|----------4----3~---------|
G|-------8---|---------------10---|---3~-|----------3----4~---------|
D|-----10----|------------10------|---5~-|----------5----5~---------|
A|---10------|--8--10--11---------|------|--------------------------|
E|--8--------|--------------------|------|--6-4-3-------------------|
   ‘come into my life…’

e|---------8-|--------------------|------|--------------------------|
B|--------8--|-----------------8--|---4~-|----------4----3~---------|
G|-------8---|---------------10---|---3~-|----------3----4~---------|
D|-----10----|------------10------|---5~-|----------5----5~---------|
A|---10------|--8--10--11---------|------|--------------------------|
E|--8--------|--------------------|------|--6-4-3-------------------|
   ‘Draw another picture…’

      Fm
e|-------1-----|-----------------|-------------|---------------------|
B|------1------|------4----------|----3--------|-----4---------------|
G|----1----(X2)|-----3--3---(X2)-|-----4---(X2)|----3--3----(X2)-----|
D|-----3-------|----5----5-------|---3--3------|---5----5------------|
A|---3---------|---6-------------|--5----------|--6------------------|
E|--1----------|-----------------|-3-----------|---------------------|
   ‘You should never be afraid…’

       G       G      Ab     Ab     Cm       G      Cm
e|---------------|--------------|----3---|--------|----3----------|
B|------3-----3--|-----4-----4--|----4---|---3----|----4----------|
G|-----4-----4---|----5-----5---|---5----|---4----|----5----------|
D|----5-----5----|---6-----6----|--5-----|---5----|----5----------|
A|---5-----5-----|--6-----6-----|-3------|---5----|----3----------|
E|--3-----3------|-4-----4------|--------|---3----|---------------|
     ‘Why   …       Why  …    is this a crisis,   in your eyes’     (cue piano)

[KNIGHTS OF CYDONIA - Muse]

[Intro]
e|-------------------------|
B|-------------------------|
G|-------------------------|
D|-------------------------|(x4)
A|-------------------------|
E|-0----2--3----5--5--7----|

(Overdub on 3rd and 4th Intro.)
e|--------------------------------|
B|--------------------------------|
G|--------------------------------|
D|--------------------------------|
A|-7--9--10----12--10--9--7--6----|
E|--------------------------------|
(All Tremolo Picked)

e|------------------|
B|------------------|
G|------------------|
D|------------------|
A|------------------|
E|-19/////////////0-|
(Tremolo Pick down the neck.)

e|-0----|
B|-0----|
G|-0----|
D|-2----|
A|-2----|
E|-0----|

e|---------------------------------------|--------------------------------------|
B|---------------------------------------|--------------------------------------|
G|---------------------------------------|--------------------------------------|
D|-5---4--2--0-----2--4--5----4--2--0----|-1----2--4--2---5--7--8----7--8--9----|
A|---------------------------------------|--------------------------------------|
E|---------------------------------------|--------------------------------------|

e|----------------|----------------|----------------|----------------------|
B|----------------|----------------|----------------|----------------------|
G|-8---5--0--7----|-8---7--5--3----|-7---5--3--5----|-3--1--3----4----5----|
D|----------------|----------------|----------------|----------------------|
A|----------------|----------------|----------------|----------------------|
E|----------------|----------------|----------------|----------------------|

(All Tremolo Picked)
e|-11---10--8--6---|-8--10--11---10--8--6----|-7---8--10--8--|-11--13--14---13--14--15----|
B|-----------------|-------------------------|---------------|----------------------------|
G|-----------------|-------------------------|---------------|----------------------------|
D|-----------------|-------------------------|---------------|----------------------------|
A|-----------------|-------------------------|---------------|----------------------------|
E|-----------------|-------------------------|---------------|----------------------------|

e|-19--16-----18---|-19--18-16-14---|--18--16-14-16--|-14-12-14---15---16----|
B|---------16------|----------------|----------------|-----------------------|
G|-----------------|----------------|----------------|-----------------------|
D|-----------------|----------------|----------------|-----------------------|
A|-----------------|----------------|----------------|-----------------------|
E|-----------------|----------------|----------------|-----------------------|

[BASSLINE]
G|--------------------------|--------------------------|
D|--------------------------|--------------------------|
A|-----2--7--2--6--7-----2--|-----2--3-----2--3-----2--|
E|--4-----------------3-----|--0--------3--------3-----|

e|--0--|
B|--0--|
G|--0--|
D|--2--|
A|--2--|
E|--0--|

[Back to Intro]
e|-------------------------|
B|-------------------------|
G|-------------------------|
D|-------------------------|(x4)
A|-------------------------|
E|-0----2--3----5--5--7----|

[Overdub on 3rd and 4th Intro]
e|--------------------------------|
B|--------------------------------|
G|--------------------------------|
D|--------------------------------|
A|-7--9--10----12--10--9--7--6----|
E|--------------------------------|
(Synth arr. for Guitar)

"No one´s going to take me alive"
Em
e|-----------------------0--|
B|-----------------0---0----|
G|-----------0---0---0------|
D|-----2---2---2------------| x2
A|---2---2------------------|
E|-0------------------------|

Bm
e|----------------------2--|
B|----------------3---3----|
G|----------4---4---4------|
D|----4---4---4------------| x2
A|--2---2------------------|
E|-------------------------|

"The time has come to make things right"
A
e|-------------------0-|
B|-------------0---0---|
G|------2----2---2-----|
D|----2----2-----------| x2
A|--0------------------|
E|---------------------|

Em
e|-----------------------0--|
B|-----------------0---0----|
G|-----------0---0---0------|
D|-----2---2---2------------| x2
A|---2---2------------------|
E|-0------------------------|

"You and I must fight for our right"
Em
e|-----------------------0--|
B|-----------------0---0----|
G|-----------0---0---0------|
D|-----2---2---2------------| x2
A|---2---2------------------|
E|-0------------------------|

Bm
e|----------------------2--|
B|----------------3---3----|
G|----------4---4---4------|
D|----4---4---4------------| x2
A|--2---2------------------|
E|-------------------------|

"You and I must fight to survive"
A
e|-------------------0-|
B|-------------0---0---|
G|------2----2---2-----|
D|----2----2-----------| x2
A|--0------------------|
E|---------------------|

Em
e|-----------------------0--|
B|-----------------0---0----|
G|-----------0---0---0------|
D|-----2---2---2------------| x2
A|---2---2------------------|
E|-0------------------------|

[Riff]
e|-----------------------------------------------|
B|-----------------------------------------------|
G|-----------------------------------------------|
D|----------------------------------------5------|
A|-5h7-7-7-7--5h7-7-7-7--5h7-7-7-7--5-7-5---5-7--|
E|-----------------------------------------------|

e|-----------------------------------------------|
B|-----------------------------------------------|
G|-----------------------------------------------|
D|-----------------------------------------------|
A|-5----------5----------5----------5-----5h7-7--|
E|---7-7-7-7----7-7-7-7----7-7-7-7----7-7--------|

e|-----------------------------------------------|
B|-----------------------------------------------|
G|-----------------------------------------------|
D|-----------------------------------------------|
A|-7p0-0-0-0--7p0-0-0-0--7p0-0-0-0--7p0-0--------|
E|----------------------------------------7-5-3--|

e|---------------------------------------------|
B|---------------------------------------------|
G|---------------------------------------------|
D|---------------------------------------------|
A|---------------------------------------------|
E|-3p0-0-0-0--3p0-0-0-0--3p0-0-0-0--3p0-0-0-0--|

[End Solo]
e|-12----------------10--------9----7--5h7p5----3--------|
B|-------12----------------------------------------------|
G|-------------12----------------------------------------|
D|-------------------------------------------------------| x 2
A|-------------------------------------------------------|
E|-------------------------------------------------------|
(Tremolo Pick All Notes)

[End Riff]
e|---------------------------------------------|
B|---------------------------------------------|
G|---------------------------------------------|
D|---------------------------------------------|
A|---------------------------------------------|
E|-3p0-0-0-0--3p0-0-0-0--3p0-0-0-0--3p0-3-5-7--|

e|----------------------------------------------|
B|----------------------------------------------|
G|----------------------------------------------|
D|----------------------------------------------|
A|---------------------------------5h7-7-5h7-7--|
E|-3p0-0-0-0--3p0-0-0-0--3p0-0-0-0--------------|


************************************

| PM   Palm mute
| /    Slide up
| \    Slide down
| x    Dead note
| b    Bend
| (n)  Ghost note
| h    Hammer-on
| p    Pull-off
| ~    Vibrato
| .    Staccato
| r    Release

************************************
Suggest correction
comments
print report bad tab
19 comments total. Showing first comments.
+1 reply
sam allen rules 206 Jan 22, 2007 12:18 PM

it's all right to use my take a bow tab but it's slightly wrong there's a part in the synth where it should be up a string.

P.S. I'm not gonna rate it

+3 reply
Zuka 403 Jan 22, 2007 01:43 PM

Ohh... I can't believe you spelled the album name wrong!!

+1 reply
LewisMasonx 1,741 Jan 22, 2007 02:37 PM

Arghhh, album name >.

guest
You may want to rate the tab now too:
select rating
Wanna post a correction for this tab? Suggest correction