Oops, an error
Loading. Please wait.

Bliss Bass

version 2
version 2
by Muse
57,078 views 15 this week
10 commentsread comments
1 2 3 4 5
x 33
add to favorites
launch autoscroll
font size
0
reset
guitar tuner
backing track
0:00
0:00
×
Best way to learn
"Bliss"
Autoscroll
slow
fast
+/-
esc
set tempo
stop
Author
-----------------------------------------------------------------
                        Bliss - Muse
-----------------------------------------------------------------
Tabbed by: Red-Vex
E-mail: redvex@lycos.it

Comments: should be 100% correct, e-mail me if you disagree :D
          I've not found any other completely satisfactory tabs,
          so here's mine. By the way, first tab.

Piano intro, bass tacet
Guitar kicks in, bass goes


[Verse]

G|---------------15------15--------------------------|
D|--10-10-10-10-----88-8----88-10-11-----------------|
A|-----------------------------------8-8-8-8---------|
E|---------------------------------------------------|
                                                      
G|---------------------------------------------------|
D|--10------10--------------------3-------3----------|
A|---------------------------------------------------|
E|-----88-8----88-10-11--6-6-6-6----1-1-1---1-1-3-4--|(x3)
                                                      
G|---------------------------------------------------|
D|-----------------------5-5---5-6-------------------|
A|-3-3-3-3--3-6-6-3-3--3-----6-----------------------|
E|---------------------------------------------------|


[Chorus]

G|---------------------------------------------------|
D|-10--10--10--10--7--7--7--7------------------------|
A|-----------------------------10--10--10--10--------|
E|---------------------------------------------------|
                                                     |(x1)
G|---------------------------------------------------|
D|---------------------------------------------------|
A|-3--3--3--3--0--0--0--0----------------------------|
E|-------------------------0--0--0--0----------------|


G|---------------------------------------------------|
D|---------------------------------------------------|
A|---------------------------------------------------|
E|-1~----------1-1-1-1-1-1-1-1-----------------------|

[Then Verse] (x3)
[Chorus] (x2)

and then again:
G|---------------------------------------------------|
D|---------------------------------------------------|
A|---------------------------------------------------|
E|-1~----------1-1-1-1-1-1-1-1-----------------------|

Then bass tacet for a while and when Matt starts playing octaves, Chris plays again
verse x1 and then again chorus x2; Then in the ending bass tacet, or if you want to
play the live version go on with Verse while the guitar plays the solo.
Hope you enjoy. MUSE lead my life.



************************************

| ~  Vibrato

************************************
Suggest correction
comments
print report bad tab
10 comments total. Showing first comments.
+1 reply
tumples 30 Apr 14, 2007 12:49 PM

this is the right one, not the other loads of five stars one, the verse is completely wrong on that

good job mr red

+1 reply
juli9n 10 Jul 27, 2007 11:36 AM

Yes, that's the way Chris plays it live :)

Good Job man !

0 reply
bramster 10 Jan 03, 2008 09:17 AM

spot on well done!!!!!

guest
You may want to rate the tab now too:
select rating
Wanna post a correction for this tab? Suggest correction