Oops, an error
Loading. Please wait.

Bliss Tab

version 3
version 3
by Muse
192,179 views 264 this week
22 commentsread comments
1 2 3 4 5
excellent!
x 63
add to favorites
launch autoscroll
font size
0
reset
how to read this tab
guitar tuner
Autoscroll
slow
fast
+/-
esc
set tempo
stop
Help us to improve Ultimate-Guitar.com Take our survey!
×
Contributor
Gu1T@r_H3r0 3,133
Artist-Muse
Track-Bliss
Album-Origin Of Symmetry
Any comments, questions or queries then mail me at ruled_by_secrecy_6@hotmail.com


[Intro]
This is the synth, pretty tricky on guitar.
e|---------------------11-15-11--------------------|
B|------------------13----------13-----------------|
G|---------------12----------------12--------------|
D|---------10-13----------------------13-10--------|
A|------10----------------------------------10-----|
E|-8-11----------------------------------------11--|

e|---------------------10-13-10-------------------|
B|------------------11----------11----------------|
G|---------------10----------------10-------------|
D|------------12----------------------12----------|
A|---------13----------------------------13-------|
E|-6-10-13----------------------------------13-10-|

e|---------------4-8-4--------------|
B|-------------6-------6------------|
G|-----------5-----------5----------|
D|-------3-6---------------6-3------|
A|-----3-----------------------3----|
E|-1-4---------------------------4--|

e|---------------------11-15-11-------------------|
B|------------------13----------13----------------|
G|---------------12----------------12-------------|
D|---------10-13----------------------13-10-------|
A|------10----------------------------------10----|
E|-8-11----------------------------------------11-|

e|---------------------11-15-11--------------------|
B|------------------13----------13-----------------|
G|---------------12----------------12--------------|
D|---------10-13----------------------13-10--------|
A|------10----------------------------------10-----|
E|-8-11----------------------------------------11--|


[Live Intro]
(This is the one Matt played at Glasto and is much easier)
e|-11-----------------|-10-----------------|-13-----------------|
B|-----13-------------|-----11-------------|-----13-------------|
G|---------12~--------|---------10~--------|---------13~--------|
D|--------------------|--------------------|--------------------|
A|--------------------|--------------------|--------------------|
E|--------------------|--------------------|--------------------|


[Main Riff]
e|------------------------------1--1--1--1----------------------------------1-1---|
B|-4--4--4--4-x-x-3-3-x-x-3-3-0-1--1--1--1-x-x-4-4-x-x-4-4-0-3--3--3--3-x-x-1-1-x-|
G|-5--5--5--5-x-x-3-3-x-x-3-3-0-1--1--1--1-x-x-5-5-x-x-5-5-0-3--3--3--3-x-x-1-1-x-|
D|-5--5--5--5-x-x-3-3-x-x-3-3-0-3--3--3--3-x-x-5-5-x-x-5-5-0-3--3--3--3-x-x-3-3-x-|
A|-3--3--3--3-x-x-1-1-x-x-1-1-0-3--3--3--3-x-x-3-3-x-x-3-3-0-1--1--1--1-x-x-3-3-x-|
E|------------------------------1--1--1--1-x-x------------------------------1-1-x-|

e|--1-1---------------------------------|
B|x-1-1---4--4--4--4--x-x-4-4-x-x-x-4-4-|
G|x-1-1-0-5--5--5--5--x-x-5-5-x-x-x-5-5-|
D|x-3-3-0-5--5--5--5--x-x-5-5-x-x-x-5-5-|
A|x-3-3-0-3--3--3--3--x-x-3-3-x-x-x-3-3-|
E|x-1-1-0-------------------------------|


[Verse]
(This is my own version of what Matt plays)
e|-----------------------------------------------------|
B|-13----13--------------------------------------------|
G|----------15----15-10----10------------------------5-|
D|----------------------------10----10-8----8-3----3---| x2
A|-----------------------------------------------------|
E|-----------------------------------------------------|


[Chorus]

e|-----------------------------------|-----------------------------------|-1-1-1-1-1-1-1-1-|
B|-1-1-1-1--1-1-1-1--1-1-1-1-1-1-1-1-|-1-1-1-1--1-1-1-1------------------|-1-1-1-1-1-1-1-1-|
G|-0-0-0-0--2-2-2-2--0-0-0-0-0-0-0-0-|-0-0-0-0--2-2-2-2--1-1-1-1-1-1-1-1-|-1-1-1-1-1-1-1-1-|
D|-2-2-2-2--2-2-2-2--2-2-2-2-2-2-2-2-|-2-2-2-2--2-2-2-2--2-2-2-2-2-2-2-2-|-3-3-3-3-3-3-3-3-|
A|-3-3-3-3---------------------------|-3-3-3-3-----------2-2-2-2-2-2-2-2-|-3-3-3-3-3-3-3-3-|
E|-------------------3-3-3-3-3-3-3-3-|-------------------0-0-0-0-0-0-0-0-|-1-1-1-1-1-1-1-1-|


[Main Riff]
e|------------------------------1--1--1--1----------------------------------1-1---|
B|-4--4--4--4-x-x-3-3-x-x-3-3-0-1--1--1--1-x-x-4-4-x-x-4-4-0-3--3--3--3-x-x-1-1-x-|
G|-5--5--5--5-x-x-3-3-x-x-3-3-0-1--1--1--1-x-x-5-5-x-x-5-5-0-3--3--3--3-x-x-1-1-x-|
D|-5--5--5--5-x-x-3-3-x-x-3-3-0-3--3--3--3-x-x-5-5-x-x-5-5-0-3--3--3--3-x-x-3-3-x-|
A|-3--3--3--3-x-x-1-1-x-x-1-1-0-3--3--3--3-x-x-3-3-x-x-3-3-0-1--1--1--1-x-x-3-3-x-|
E|------------------------------1--1--1--1-x-x------------------------------1-1-x-|

e|--1-1---------------------------------|
B|x-1-1---4--4--4--4--x-x-4-4-x-x-x-4-4-|
G|x-1-1-0-5--5--5--5--x-x-5-5-x-x-x-5-5-|
D|x-3-3-0-5--5--5--5--x-x-5-5-x-x-x-5-5-|
A|x-3-3-0-3--3--3--3--x-x-3-3-x-x-x-3-3-|
E|x-1-1-0-------------------------------|


[Verse]
(This is my own version of what Matt plays)
e|-----------------------------------------------------|
B|-13----13--------------------------------------------|
G|----------15----15-10----10------------------------5-|
D|----------------------------10----10-8----8-3----3---| x2
A|-----------------------------------------------------|
E|-----------------------------------------------------|


[2nd Chorus]

e|-----------------------------------|-----------------------------------||-1-1-1-1-1-1-1-1-|
B|-1-1-1-1--1-1-1-1--1-1-1-1-1-1-1-1-|-1-1-1-1--1-1-1-1------------------||-1-1-1-1-1-1-1-1-|
G|-0-0-0-0--2-2-2-2--0-0-0-0-0-0-0-0-|-0-0-0-0--2-2-2-2--1-1-1-1-1-1-1-1-||-1-1-1-1-1-1-1-1-|
D|-2-2-2-2--2-2-2-2--2-2-2-2-2-2-2-2-|-2-2-2-2--2-2-2-2--2-2-2-2-2-2-2-2-||-3-3-3-3-3-3-3-3-|
A|-3-3-3-3---------------------------|-3-3-3-3-----------2-2-2-2-2-2-2-2-||-3-3-3-3-3-3-3-3-|
E|-------------------3-3-3-3-3-3-3-3-|-------------------0-0-0-0-0-0-0-0-||-1-1-1-1-1-1-1-1-|


[Intro]
This is the synth, pretty tricky on guitar.
e|---------------------11-15-11--------------------|
B|------------------13----------13-----------------|
G|---------------12----------------12--------------|
D|---------10-13----------------------13-10--------|
A|------10----------------------------------10-----|
E|-8-11----------------------------------------11--|

e|---------------------10-13-10-------------------|
B|------------------11----------11----------------|
G|---------------10----------------10-------------|
D|------------12----------------------12----------|
A|---------13----------------------------13-------|
E|-6-10-13----------------------------------13-10-|

e|---------------4-8-4--------------|
B|-------------6-------6------------|
G|-----------5-----------5----------|
D|-------3-6---------------6-3------|
A|-----3-----------------------3----|
E|-1-4---------------------------4--|

e|---------------------11-15-11-------------------|
B|------------------13----------13----------------|
G|---------------12----------------12-------------|
D|---------10-13----------------------13-10-------|
A|------10----------------------------------10----|
E|-8-11----------------------------------------11-|

e|---------------------11-15-11--------------------|
B|------------------13----------13-----------------|
G|---------------12----------------12--------------|
D|---------10-13----------------------13-10--------|
A|------10----------------------------------10-----|
E|-8-11----------------------------------------11--|


[Bridge]
(Not too sure about this bit)
e|------------------------|----------------------------|--------------------------------|
B|------------------------|----------------------------|--------------------------------|
G|-5--5--5--5--5--5--5-5--|--7--7--7--7--7--7--7--7-7--|--10--10--10--8--8--8--7--7--7--|
D|------------------------|----------------------------|--------------------------------|
A|-3--3--3--3--3--3--3-3--|--5--5--5--5--5--5--5--5-5--|---8---8---8--6--6--6--5--5--5--|
E|------------------------|----------------------------|--------------------------------|

e|----------------------------|--------------------------|--------------------------|
B|----------------------------|--------------------------|--------------------------|
G|--8--8--8--7--7--7--5--5-5--|--7--7--7--5--5--5--3--3--|--------------------------|
D|----------------------------|--------------------------|--6--6--6--5--5--5--3--3--|
A|--6--6--6--5--5--5--3--3-3--|--5--5--5--3--3--3--1--1--|--------------------------|
E|----------------------------|--------------------------|--4--4--4--3--3--3--1--1--|

e|-------------------------------|-------------------------------|
B|-------------------------------|-------------------------------|
G|--5--5-5-5--5-5-5--5-5-5--5-5--|--5--5-5-5--5-5-5--5-5-5--5-5--|
D|-------------------------------|-------------------------------|
A|--3--3-3-3--3-3-3--3-3-3--3-3--|--3--3-3-3--3-3-3--3-3-3--3-3--|
E|-------------------------------|-------------------------------|


************************************

| x  Dead note
| ~  Vibrato

************************************
Suggest correction new What's this?
You can suggest a correction to this tab. Community and Mods will review your correction and vote to approve or reject it.
comments
print report bad tab
22 comments total. Showing first comments.
+3 reply
tom_nik 931 wrote on December 7 2004, 12:00 am

nice tab man.. and good on ya for tabbin the glasto bits aswell aye.

0 reply
FreedomFighter 1,094 wrote on March 14 2005, 12:00 am

Nice tab. But the intro is played on the piano or synth.

+1 reply
Gu1T@r_H3r0 3,133 wrote on March 27 2005, 12:00 am

I know, I used that intro to transcribe it onto piano.

guest
You may want to rate the tab now too:
select rating
Please do not post tabs as comments. Select "correction" instead!