Oops, an error
Loading. Please wait.

Bliss Bass Tab

version 4
by Muse
10,583 views 24 this week
1 commentread comment
1 2 3 4 5
excellent!
x 8
add to favorites
launch autoscroll
font size
0
reset
guitar tuner
Tab Pro tools
  • play this tab
  • loop segment
  • change instrument
  • show fretboard
  • metronome
Autoscroll
slow
fast
+/-
esc
set tempo
stop
Contributor
Difficulty
novice
Band: Muse
Song: Bliss
Album: Origin of Symmetry (2001)
Bassist: Chris Wolstenholme
Tuning: Standard

Note: It's painful if You are looking for tab and result doesn't seem to be
great. Several tabs of Bliss but one is incomplete and other two isn't right.
Here's full tab of Bliss - verse, chorus, bridge.

Verse:

G|-----------/15---------15-------------------------------------------------|
D|10-10-10-10---------------------------------10-----10---------------------|
A|---------------1313-13---1313-14-15-8-8-8-8-------------------------------|
E|----------------------------------------------88-8----88-10-11-6-6-6-(6)\-|

G|---------------------------------------|  
D|3------3-----------------------5---8-9-|
A|------------1-2-3-3-3-3-6--------------|
E|--11-1---11---------------88-8--88-----|  Play verse 3 times

Chorus:

G|----------------------|
D|10(x4)--7(x4)---------|
A|---------------10(x8)\|
E|----------------------|

G|----------------------|----------------------| 
D|----------------------|----------------------|
A|3(x8)---0(x8)---------|----------------------|    If You want
E|----------------0(x16)|1~--------------------| play some extra 1's

Verse: Play verse 3 times again:

Chorus:

G|----------------------|----------------------|
D|10(x4)--7(x4)---------|----------------------|
A|---------------10(x8)\|3(x4)---0(x4)---------|
E|----------------------|-----------------0(x8)|

G|----------------------|----------------------|----------------------|
D|10(x8)--7(x8)---------|----------------------|----------------------|
A|---------------10(x16)|3(x8)---0(x8)---------|----------------------|
E|----------------------|----------------0(x16)|1~--------------------|

No bass till [2:53]

Bridge:

G|--------------------------------------------------|
D|10(x8)--8(x8)----------------8(x8)----------------|
A|---------------8(x8)----------------8(x8)--3(x16)/|
E|----------------------8(x8)-----------------------|

Chorus (first part is a little bit different):

G|----------------------------------------------------------|
D|10-10-10101010-777-7777-----------------------------------|
A|--------------------------101010-10101010-101010-101010\--|
E|----------------------------------------------------------|

G|--------------------------------------|
D|--------------------------------------|
A|333-3333-000-0000---------------------|
E|--------------------000-0000-000-0000-|

G|----------------------|----------------------|----------------------|
D|10(x8)--7(x8)---------|----------------------|----------------------|
A|---------------10(x16)|3(x8)---0(x8)---------|----------------------|
E|----------------------|----------------0(x16)|1~--------------------|

Hope that You'll find this tab useful. Please rate and check out other
MUSE tabs tabbed by me.  

/  slide up
\  slide down
h  hammer-on
p  pull-off
~  let ring
comments
print report bad tab
1 comment total.
0 reply
Haloquadratum wrote on April 12 2013, 05:01 pm

nice tab! it's complete, unlike v3. great job!

I want to post or [tab]
guest
You may want to rate the tab now too:
select rating
Please do not post tabs as comments. Select "correction" instead!