Oops, an error
Loading. Please wait.

Cant Take My Eyes Off You Tab

version 3
version 3

Whole song

Interactive

by Muse
5,090 views 24 this week
no commentswrite comment
1 2 3 4 5
please rate
add to favorites
launch autoscroll
font size
0
reset
how to read this tab
guitar tuner
Autoscroll
slow
fast
+/-
esc
set tempo
stop
Help us to improve Ultimate-Guitar.com Take our survey!
×
Difficulty
novice
FOUND A TAB AND COMPLETELY CORRECTED IT THIS IS THE RIGHT TAB! CHEERS


E-3~------7-------|
B-5~------5-------|
G-5~------5-------| 
D-5~------5-------| 
A-3~------3-------|
E-----------------|


E-------------------------------------|
B-------------------5-----------------|
G-------------------5-----------------|
D-------------------5-----------------|
A-------------------3-----------------|
E-------------------------------------|
  you're just too good to be true


E-----------------------------------|
B-------------------5---------------|
G-------------------4---------------|
D-------------------5---------------|
A-------------------3---------------|
E-----------------------------------|
      can't keep my eyes off you


E----------------3---------------------|
B----------------5---------------------|
G----------------3---------------------|
D----------------5---------------------|
A----------------3---------------------|
E--------------------------------------|
   you feel like heaven to touch

E----------1-------------------------|
B----------1-------------------------|
G----------2-------------------------|
D----------3-------------------------|
A----------3-------------------------|
E----------1-------------------------|
i wanna hold you so much


E-----------------1--------------------|
B-----------------1--------------------|
G-----------------1--------------------|
D-----------------3--------------------|
A-----------------3--------------------|
E-----------------1--------------------|
our long lost love has arrived

E----------------3----------------|
B----------------5----------------|
G----------------5----------------|
D----------------5----------------|
A----------------3----------------|
E---------------------------------|
     and i thank god i'm alive

E------------------------------------------|
B------------------------------------------|
G-------------------2-----------1----------|
D-------------------3-----------3----------|
A-------------------3-----------3----------|
E-------------------1-----------1----------|
 you're just too good to be true  can't take my eyes off you

E-x-x-x--x-x-x--x-x-x-x--|
B-x-x-x--x-x-x--x-x-x-x--|
G-x-x-x--x-x-x--x-x-x-x--|
D-x-x-x--x-x-x--x-x-x-x--|
A-x-x-x--x-x-x--x-x-x-x--|
E-x-x-x--x-x-x--x-x-x-x--|
PRE-CHORUS
E---------------------------------------------|
B---------------------------------------------|
G-13-14-13-14-13-14-17-16-14-13-14------------|
D---------------------------------------------| X 3 1/2
A-11-12-11-12-11-12-15-14-12-11-12------------|
E---------------------------------------------|
THEN
E------------------------------------|
B------------------------------------|
G-14-14-14-14-14---------------------|
D------------------------------------|
A-12-12-12-12-12---------------------|KEEP BUILDING UP
E------------------------------------|


CHORUS

   Dm                 G
E-5-------------------3--------------------------------|
B-6-------------------3--------------------------------|
G-7-------------------4--------------------------------|
D-7-------------------5--------------------------------|
A-5-------------------5--------------------------------|
E---------------------3--------------------------------|
  I love you baby and if it's quite alright i need you

 C                      Am
E-3----------------------5------------------------------|
B-5----------------------5------------------------------|
G-5----------------------5------------------------------|
D-5----------------------7------------------------------|
A-3----------------------7------------------------------|
E------------------------5------------------------------|
   baby to cure my lonely heart i want you

  Dm    G                   C          A
E-5-----3------------------3----------5--|
B-6-----3------------------5----------5--|
G-7-----4------------------5----------6--|
D-7-----5------------------5----------7--|
A-5-----5------------------3----------7--|
E-------3-----------------------------5--|
   baby trust in me when i say

   Dm
Oh  pretty  baby

                     G
don't bring me down i pray

             C
oh pretty baby

                  Am
now that i've found this day

                Dm
Oh let me love you baby

          G
let me love you

OUTRO: WITH MAJOR DISTORTION AND FEEDBACK TREMOLO PICKED OR WHATEVER PREFERED STYLE

E-----------------------------------------------------|
B-----------------------------------------------------|
G-5~-4~-3~-3B-(5)-2~-1~-12~~--------------------------|
D-----------------------------14----------------------|
A--------------------------------15-------------------|
E-----------------------------------------------------|
Suggest correction
Give kudos to tab author, rate the tab!
1 2 3 4 5
comments
print report bad tab
guest
You may want to rate the tab now too:
select rating
Please do not post tabs as comments. Select "correction" instead!