Oops, an error
Loading. Please wait.

Cave Bass Tab

version 4
version 4

Whole song

Interactive

by Muse
12,665 views 48 this week
1 commentread comment
1 2 3 4 5
excellent!
x 10
add to favorites
launch autoscroll
font size
0
reset
guitar tuner
Autoscroll
slow
fast
+/-
esc
set tempo
stop
Help us to improve Ultimate-Guitar.com Take our survey!
×
Contributor
Difficulty
Tuning
4useless 2,773
intermediate
D A D G B E
Band: Muse
Song: Cave
Album: The Showbiz (1999)
Bassist: Chris Wolstenholme
Tuning: Standard

Intro:

G|------------------------------57775777|
D|00000---00000---00000---00000---------|
A|--------------------------------------|
E|--------------------------------------|

G|----------------|    |--------57775777|
D|0-003-0---------|    |0-003-0---------|
A|------------3-4-|    |----------------|
E|--------4-5-----| x7 |----------------|

Verse:

G|----------------|   
D|0-003-0---------|   
A|------------3-4-|    
E|--------4-5-----| x4
                                                                    v
G|---------------------------------------12--------10-------9-------7~--|
D|----5-------7-------8-------10----------------------------------------|
A|---------------------------------10-10----10-8-8----8-7-7---7-6-6-----|
E|3-3---3-5-5---5-6-6---6-8-8----8--------------------------------------|

G|----------------|    |--------57775777|
D|0-003-0---------|    |0-003-0---------|
A|------------3-4-|    |----------------|
E|--------4-5-----| x3 |----------------|

G|----------------|   
D|0-003-0---------|   
A|------------3-4-|    
E|--------4-5-----| x4

G|---------------------------------------12--------10-------9-----88--|
D|----5-------7-------8-------10--------------------------------------|
A|---------------------------------10-10----10-8-8----8-7-7---7-6---6-|
E|3-3---3-5-5---5-6-6---6-8-8----8------------------------------------|

Chorus:

G|--------|--------|--------|--------|
D|0000000-|--------|--------|--------|
A|--------|--------|--------|--------|
E|-------2|~2222222|33333333|33333333| x4

Pre-verse: 

G|------------------------------57775777|
D|00000---00000---00000---00000---------|
A|--------------------------------------|
E|--------------------------------------|

G|----------------|    |--------57775777|
D|0-003-0---------|    |0-003-0---------|
A|------------3-4-|    |----------------|
E|--------4-5-----| x4 |----------------|

Verse:

G|----------------|    |--------7--7--7-|    You can hear this
D|0-003-0---------|    |0-003-0--00-00-0| clearly on instrumental 
A|------------3-4-|    |----------------|        version
E|--------4-5-----| x3 |----------------|
                                                                    v
G|---------------------------------------12--------10-------9-------7~--|
D|----5-------7-------8-------10----------------------------------------|
A|---------------------------------10-10----10-8-8----8-7-7---7-6-6-----|
E|3-3---3-5-5---5-6-6---6-8-8----8--------------------------------------|

G|----------------|    |--------57775777|
D|0-003-0---------|    |0-003-0---------|
A|------------3-4-|    |----------------|
E|--------4-5-----| x3 |----------------|

G|----------------|    |--------7--7--7-|
D|0-003-0---------|    |0-003-0--00-00-0|
A|------------3-4-|    |----------------|    
E|--------4-5-----| x3 |----------------|

G|---------------------------------------12--------10-------9-----88--|
D|----5-------7-------8-------10--------------------------------------|
A|---------------------------------10-10----10-8-8----8-7-7---7-6---6-|
E|3-3---3-5-5---5-6-6---6-8-8----8------------------------------------|

Chorus:

G|--------|--------|--------|--------|
D|0000000-|--------|--------|--------|
A|--------|--------|--------|--------|
E|-------2|~2222222|33333333|33333333| x4

Bridge:

G|----------------|    Play zeros till 3:45
D|0-0-0-0-0-0-0-0-| and let the last note ring
A|----------------| 
E|----------------|  

G|--------|    |--------| 
D|00000000|    |000012\-| There's twelwe
A|--------|    |--------|
E|--------| x7 |--------|

Ending: (not sure about it, but something like below)

G|-------------------------------------------------------------------|
D|----------------------------------------------6\-------------------|
A|2--2--2-2-2-222-1--1--1-1-11111-0--0/(12)\-------------------------|
E|-------------------------------------------44----4-3--3--3-3-33333-|

G|----------------------------------------------------------------------|
D|----------------------------------------------6\----------------------|
A|2--2--2-2-22222-1--1--1-1-11111-0--0/(12)\----------------------345~--|
E|-------------------------------------------44----4-3--3--3-3-333------|

/  slide up
\  slide down
h  hammer-on
p  pull-off
~  let ring
v  vibrato
comments
print report bad tab
1 comment total.
0 reply
Aishling 11 wrote on November 3 2014, 06:25 am

Thanks for da tab

I want to post or [tab]
guest
You may want to rate the tab now too:
select rating
Please do not post tabs as comments. Select "correction" instead!