Oops, an error
Loading. Please wait.

Citizen Erased Tab

version 6
version 6
by Muse
4,227 views 1 this week
1 commentread comment
1 2 3 4 5
accurate
x 1
add to favorites
launch autoscroll
font size
0
reset
how to read this tab
guitar tuner
Tab Pro tools
  • play this tab
  • loop segment
  • change instrument
  • show fretboard
  • metronome
Autoscroll
slow
fast
+/-
esc
set tempo
stop
Contributor
Key:
 --------------------------------------------------------------------------
| p     = pull off                                                         |
| h     = hammer on                                                        |
| b     = bend                                                             |
| r     = release bend                                                     |
| xby   = bend up from x to y                                              |
| yrx   = release bend from y to x                                         |
| /     = slide up                                                         |
| \     = slide down                                                       |
| x/y   = slide up from x to y                                             |
| y\x   = slide down from y to x                                           |
| x\\   = slide right down                                                 |
| x//   = slide right up                                                   |
| ~     = vibrato                                                          |
| NH    = natural harmonics                                                |
| [x]   = note inside brackets is a harmonic                               |
| Pm... = palm mute                                                        |
| ()    = notes in brackets are played very quietly                        |
| ^     = whammy bar use (W = Whammy bar abuse)                            |
| x*    = hold note                                                        |
| b*    = hold bend                                                        |
| PS    = (pick slide) press the side of pick on the fret board and slide  |
| “     = Very fast repeated up and down strokes with a plectrum           |
| NPU   = Neck Pick-Ups (e.g.: /NPU\ = slide up to NPU and slide back down |
 --------------------------------------------------------------------------

                Citizen Erased - MUSE
Tuning: AADGBE

NOTE: When playing the solo, the guitar can get completely out of tune because of
whammy abuse. You'll need to listen carefully, and get the right pitch.
When playing the harmonics at fret 10, the harmonic is between the 9 and the 10 (so 
instead of being right on the actual metal fret it's where you'd place you're finger to play 
G on the 10th fret of the A-string)

   Riff 1:
         NH     NH   NH     NH   NH     NH       NH     NH   NH     NH   NH     NH
E |---------------------------------------------------------------------------------|
B |---------------------------------------------------------------------------------|
G |---------------------------------------------------------------------------------|
D |---------------------------------------------------------------------------------|
A |-0-0-[10]-0-[10]-[10]-0-[10]-[10]-0-[10]-0-0-[10]-0-[10]-[10]-0-[10]-[10]-0-[10]-|
A |-0-0-[10]-0-[10]-[10]-0-[10]-[10]-0-[10]-0-0-[10]-0-[10]-[10]-0-[10]-[10]-0-[10]-|

        NH    NH  NH    NH  NH    NH      NH    NH  NH    NH  NH    NH
E |---------------------------------------------------------------------|
B |---------------------------------------------------------------------|
G |---------------------------------------------------------------------|
D |---------------------------------------------------------------------|
A |-0-0-[7]-0-[7]-[7]-0-[7]-[7]-0-[7]-0-0-[7]-0-[7]-[7]-0-[7]-[7]-0-[7]-|
A |-0-0-[7]-0-[7]-[7]-0-[7]-[7]-0-[7]-0-0-[7]-0-[7]-[7]-0-[7]-[7]-0-[7]-|

        NH     NH   NH     NH   NH     NH       NH     NH   NH     NH   NH     NH
E |---------------------------------------------------------------------------------|
B |---------------------------------------------------------------------------------|
G |---------------------------------------------------------------------------------|
D |---------------------------------------------------------------------------------|
A |-0-0-[10]-0-[10]-[10]-0-[10]-[10]-0-[10]-0-0-[10]-0-[10]-[10]-0-[10]-[10]-0-[10]-|
A |-0-0-[10]-0-[10]-[10]-0-[10]-[10]-0-[10]-0-0-[10]-0-[10]-[10]-0-[10]-[10]-0-[10]-|

        NH    NH  NH    NH  NH    NH      NH    NH
E |----------------------------------------------------|
B |----------------------------------------------------|
G |----------------------------------------------------|
D |----------------------------------------------------|
A |-0-0-[7]-0-[7]-[7]-0-[7]-[7]-0-[7]-0-0-[7]-0-[7]----|
A |-0-0-[7]-0-[7]-[7]-0-[7]-[7]-0-[7]-0-0-[7]-0-[7]----|

   Riff 2:
E |---------------------------------------------------------|
B |---------------------------------------------------------|
G |---------------------------------------------------------|
D |---------------------------------------------------------|
A |-0-0-12-0-12-12-0-12-12-0-12-0-0-10-0-10-10-0-10-10-0-10-|
A |-0-0-12-0-12-12-0-12-12-0-12-0-0-10-0-10-10-0-10-10-0-10-|

E |---------------------------------------------|
B |---------------------------------------------|
G |---------------------------------------------|
D |---------------------------------------------|
A |-0-0-8-0-8-8-0-8-8-0-8-0-0-7-0-7-7-0-7-7-0-7-| x6
A |-0-0-8-0-8-8-0-8-8-0-8-0-0-7-0-7-7-0-7-7-0-7-|

   Riff 3:
E |-----------------------------------------|
B |-----------------------------------------|
G |-----------------------------------------|
D |-----------------------------------------|
A |-8-8-8-8-8-3-3-3-3-3-7-7-7-7-7-0-0-0-0-0-|
A |-8-8-8-8-8-3-3-3-3-3-7-7-7-7-7-0-0-0-0-0-|

E |-----------------------------------------|
B |-----------------------------------------|
G |-----------------------------------------|
D |-----------------------------------------|
A |-8-8-8-8-8-3-3-3-3-3-7-7-7-7-7-7-7-7-7-7-| x3
A |-8-8-8-8-8-3-3-3-3-3-7-7-7-7-7-7-7-7-7-7-|

   Interlude:
E |-------------------------------|
B |-------------------------------|
G |-------------------------------|
D |-------------------------------|
A |-12***-------------------------|
A |-------------------------------|

E |------5-----8-----7-----6-----5------5-----4-----3-----------3---|
B |--------5-----5-----5-----5------------5-----5-----3-----3-------|
G |-2/5------5-----5-----5-----5---4/5------5-----5-----3-4---4---4-|
D |-----------------------------------------------------------------|
A |-----------------------------------------------------------------|
A |-----------------------------------------------------------------|

E |-----3-----2-----1-----2-----3-------4-------4---8-----8-7-------|
B |---1---1-----1-----1-----1-----0---3---3---3---3---5-------5---5-|
G |-2-------2-----2-----2-----2-----4-------4-----------5-------4---|
D |-----------------------------------------------------------------|
A |-----------------------------------------------------------------|
A |-----------------------------------------------------------------|

E |-----5-----6-----7-----8-----7-------7-----8-----9----10-----9---|
B |---5---5-----5-----5-----5-----5---8---8-----8-----8-----8-----0-|
G |-5-------5-----5-----5-----5-----7-------7-----7-----7-----7-----|
D |-----------------------------------------------------------------|
A |-----------------------------------------------------------------|
A |-----------------------------------------------------------------|

E |-------8-------9-------10-------11-------11-------------12-------|
B |----10---10------10-------10-------10-------9-------9------------|
G |-10---------10------10-------10-------10--------9----------------|
D |-----------------------------------------------------------------|
A |-----------------------------------------------------------------|
A |-----------------------------------------------------------------|

   Riff 4:
E |---------1-------------------------------0-----------0-----------|
B |-----1-----1-------------1-----------0-----0-----------1-----1---|
G |---2---2-----2-------0-----0-------1---1-----1-----2-----------0-|
D |-3-------------3---2---2-----2---2-------------2-3---------2-----|
A |-----------------3-------------3-------------------------3-------|
A |-----------------------------------------------------------------|

E |---------1-------------------------------0-----------0-------0---|
B |-----1-----1-------------1-----------0-----0-----------0-------0-|
G |---2---2-----2-------0-----0-------1---1-----1-----1-------1-----|
D |-3-------------3---2---2-----2---2-------------2-2-------2-------|
A |-----------------3-------------3---------------------------------|
A |-----------------------------------------------------------------|

E |---------1-------------------------------0-----------0-----------|
B |-----1-----1-------------1-----------0-----0-----------1-----1---|
G |---2---2-----2-------0-----0-------1---1-----1-----2-----------0-|
D |-3-------------3---2---2-----2---2-------------2-3---------2-----|
A |-----------------3-------------3-------------------------3-------|
A |-----------------------------------------------------------------|

E |---------1-----------------------------------------------------------------------|
B |-----1-----1-------------1-------------------------------------------------------|
G |---2---2-----2-------0-----0-----------------------------------------------------|
D |-3-------------3---2---2-----2---------------------------------------------------|
A |-----------------3-------------3-------------------------11-11-11-11-11-11-11-11-|
A |----------------------------------7--7--7--7--7--7--7--7--7--7--7--7--7--7--7--7-|

   Riff 5:
        NH     NH   NH     NH   NH     NH       NH     NH   NH     NH   NH      H
E |---------------------------------------------------------------------------------|
B |---------------------------------------------------------------------------------|
G |---------------------------------------------------------------------------------|
D |---------------------------------------------------------------------------------|
A |-0-0-[10]-0-[10]-[10]-0-[10]-[10]-0-[10]-0-0-[10]-0-[10]-[10]-0-[10]-[10]-0-[10]-|
A |-0-0-[10]-0-[10]-[10]-0-[10]-[10]-0-[10]-0-0-[10]-0-[10]-[10]-0-[10]-[10]-0-[10]-|

        NH    NH  NH    NH  NH    NH      NH    NH
E |-----------------------------------------------------|
B |-----------------------------------------------------|
G |-----------------------------------------------------|
D |-----------------------------------------------------|
A |-0-0-[7]-0-[7]-[7]-0-[7]-[7]-0-[7]-0-0-[7]-0-[7]\\//-|
A |-0-0-[7]-0-[7]-[7]-0-[7]-[7]-0-[7]-0-0-[7]-0-[7]\\//-|

  |Guitar 1:
  |     NH     NH   NH     NH   NH     NH       NH     NH   NH     NH   NH     NH
E |---------------------------------------------------------------------------------|
B |---------------------------------------------------------------------------------|
G |---------------------------------------------------------------------------------|
D |---------------------------------------------------------------------------------|
A |-0-0-[10]-0-[10]-[10]-0-[10]-[10]-0-[10]-0-0-[10]-0-[10]-[10]-0-[10]-[10]-0-[10]-|
A |-0-0-[10]-0-[10]-[10]-0-[10]-[10]-0-[10]-0-0-[10]-0-[10]-[10]-0-[10]-[10]-0-[10]-|
  |
  |Guitar 2:
E |---------------------------------------------------------|
B |---------------------------------------------------------|
G |---------------------------------------------------------|
D |---------------------------------------------------------|
A |-0-0-12-0-12-12-0-12-12-0-12-0-0-10-0-10-10-0-10-10-0-10-|
A |-0-0-12-0-12-12-0-12-12-0-12-0-0-10-0-10-10-0-10-10-0-10-|

  |Guitar 1:
  |    NH    NH  NH    NH  NH    NH      NH    Solo:
E |------------------------------------------------------------------------------------|
B |------------------------------------------------------------------------------------|
G |-------------------------------------------------------W--W--W-------W-----W--16-17-|
D |---------------------------------------------12b-14r-12^-6^-9^-(-3)-5^-(-3)^/-------|
A |-0-0-[7]-0-[7]-[7]-0-[7]-[7]-0-[7]-0-0-[7]-0----------------------------------------|
A |-0-0-[7]-0-[7]-[7]-0-[7]-[7]-0-[7]-0-0-[7]-0----------------------------------------|
  |
  |Guitar 2:
E |---------------------------------------------|
B |---------------------------------------------| Then repeat Riff 2 (x1)
G |---------------------------------------------|
D |---------------------------------------------|
A |-0-0-8-0-8-8-0-8-8-0-8-0-0-7-0-7-7-0-7-7-0-7-|
A |-0-0-8-0-8-8-0-8-8-0-8-0-0-7-0-7-7-0-7-7-0-7-|

  |Guitar 1:
E |----------------------------------------------------------------|
B |------------------”--”--”--”-”-------------------------W-----W--|
G |-9/10-11/12--13--14-16-17-19b20-r19-17-16b17r16\14(14)/^/NPU\^\-|
D |----------------------------------------------------------------|
A |----------------------------------------------------------------|
A |----------------------------------------------------------------|
  |
  |Guitar 2: Riff 3 (x1)

  |Guitar 1:
E |---------------------------------------Pick-Slide----------------|
B |-17b18b19b20------20p17-20-20b22-------12//22\\17\---------------|
G |-------------------------------------------------------/15b16r15-|
D |-----------------------------------------------------------------|
A |-------------12p0----------------12\10-------------^0^/----------|
A |-------------12p0----------------------------------^0^/----------|
  |
  |Guitar 2: Riff 3 (x1)
   End solo

   Riff 3:
E |----------------------------------------------------------------|
B |----------------------------------------------------------------|
G |----------------------------------------------------------------|
D |----------------------------------------------------------------|
A |-8-8-8-8-8-3-3-3-3-3-7-7-7-7-7-0-0-0-0-0------------------------|
A |-8-8-8-8-8-3-3-3-3-3-7-7-7-7-7-0-0-0-0-0------------------------|

E |-----------------------------------------|
B |-----------------------------------------|
G |-----------------------------------------|
D |-----------------------------------------|
A |-8-8-8-8-8-3-3-3-3-3-7-7-7-7-7-7-7-7-7-7-| x2
A |-8-8-8-8-8-3-3-3-3-3-7-7-7-7-7-7-7-7-7-7-|

   Ending:
E |-------------------------------------------------------------------------|
B |-------------------------------------------------------------------------|
G |-----------------------------------------9-------------------------------|
D |---------------------------------------9---9-----------------------------|
A |-12---12/14-14---10-14/15--15\14-12-11--------7h8/12--12/14-14--10-14/15-|
A |-------------------------------------------------------------------------|

E |------------------------------------------------------------------------|
B |------------------------------------------------------------------------|
G |---------------9------------(9)----(9)----(9)----(9)----9------9--------|
D |-------------9---------7-/10--(10~)--(10~)--(10~)--(10~)-10~(10)10~(10)-|
A |-15\14-12-11-------7h8-(7)----------------------------------------------|
A |------------------------------------------------------------------------|

E |----------------------------------------------------------------------|
B |----------------------------------------------------------------------|
G |-9----------9----------9----------9----------9----------9---------9---|
D |---12----12---12----12---12----12---12----12---10----10---10----9-----|
A |------14---------14---------14---------14---------11---------11-------|
A |----------------------------------------------------------------------|

E |-----------------------------------------------------------------------|
B |-----------------------------------------------------------------------|
G |-9-------9-------9-------9-------9-------9-------9----------9----------|
D |---10~10---10~10---10~10---10~10---10~10---10~10---12----12---12----12-|
A |------------------------------------------------------14---------14----|
A |-----------------------------------------------------------------------|

E |-----------------------------------------------------------------|
B |-----------------------------------------------------------------|
G |-9----------9----------------------------------------------------|
D |---10----10---10------(10)---------------------------------------|
A |------10---------10----------------------------------------------|
A |-----------------------------------------------------------------|
comments
We did not receive enough feedback on this tab! Please rate:
print report bad tab
1 2 3 4 5
1 comment total.
0 reply
|Guitarhead| wrote on September 28 2008, 08:31 am

I hate Tabondant.com. They stole this tab from me.

I want to post or [tab]
guest
You may want to rate the tab now too:
select rating
Please do not post tabs as comments. Select "correction" instead!