Oops, an error
Loading. Please wait.

City Of Delusion Bass Tab

version 1
version 1

Whole song

by Muse
15,272 views 6 this week
1 commentread comment
1 2 3 4 5
excellent!
x 1
add to favorites
launch autoscroll
font size
0
reset
guitar tuner
Tab Pro tools
  • play this tab
  • loop segment
  • change instrument
  • show fretboard
  • metronome
Autoscroll
slow
fast
+/-
esc
set tempo
stop
Contributor
Difficulty
intermediate
Song: City of Delusion
Artist: Muse
Tabber: Zeidrich

Verse: Time to wap on your phaser. Also quite dodgy timing - you'll get it

G|----------------------|-------------------------|-------------------------|
D|----------------5-----|-------------------5-----|-------------------5-----|
A|----8-------7------7--|-------8-------7------7--|-------8-------7------7--|
E|10------9-------------|--10-------9-------------|--10-------9-------------|

G|-------------------------|-----------------------------|
D|-------------------5-----|-----------------------------|
A|-------8-------7------7--|-------8--------10---13--10--|
E|--10-------9-------------|--10-------12----------------|
   
G|------------------------------|------------------------------|
D|----------------------12------|------------------------------|
A|-------12--------13-------13--|-------12--------10---13--10--|
E|--13--------15----------------|--13--------12----------------|
  
G|------------------------|------------------------|------------------------|
D|------------------5-----|------------------------|------------------------|
A|------8-------7------7--|------7-----------7-----|------7-----------7-----|
E|-10-------9-------------|--9-------5---9------9--|--9-------5---9------9--|
   
G|-----------------------|------------------------|-------------------------|
D|-----------------------|------------------------|-------------------5-----|
A|-----4-----------7-----|------4-----------7-----|-------8-------7------7--|
E|-6-------5---9------9--|--6-------5---9------9--|--10-------9-------------|
  
G|-------------------------|-------------------------|---------------------|
D|-------------------5-----|-------------------5-----|---------------------|
A|-------8-------7------7--|-------8-------7------7--|---------------------|
E|--10-------9-------------|--10-------9-------------|--10---10---10-------|

Chorus: Take off phaser
 
G|---------------------|---------------------|---------------------|
D|---------------------|---------------------|---------------------|
A|--8---8---8----------|--4---4---4----------|--5---5---5----------|
E|---------------------|---------------------|---------------------|
 
G|---------------------|---------------------|---------------------|
D|---------------------|--5---5---5----------|--3---3---3----------|
A|--0---0---0----------|---------------------|---------------------|
E|---------------------|---------------------|---------------------|
  
G|---------------------|---------------------|---------------------|
D|--2---2---2----------|--0---0---0----------|---------------------|
A|---------------------|---------------------|--0---0---0----------|
E|---------------------|---------------------|---------------------|
 
(same timing as verse) 
G|------------------------|------------------------|------------------------|
D|--5---5---5---5---5--5--|--3---3---3---3---3--3--|------------------------|
A|------------------------|------------------------|--4---4---4---4---4--4--|
E|------------------------|------------------------|------------------------|
 
G|------------------------|------------------------|------------------------|
D|------------------------|------------------------|--5---5---5---5---5--5--|
A|--5---5---5---5---5--5--|------------------------|------------------------|
E|------------------------|--5---5---5---5---5--5--|------------------------|
 
G|------------------------|------------------------|------------------------|
D|--3---3---3---3---3--3--|--2---2---2---2---2--2--|--0---0---0---0---0--0--|
A|------------------------|------------------------|------------------------|
E|------------------------|------------------------|------------------------|
 
G|--------------------------|--------------------------|
D|--------------------------|--------------------------|
A|--12--------8---7---8--0--|--12--------8---7---8--0--|
E|-------12-----------------|-------12-----------------|
 
G|--------------------------|--------------------------|
D|--------------------------|--------------------------|
A|--12--------8---7---8--0--|--12--------8---7---3--4--|
E|-------12-----------------|-------12-----------------|


Bass Break - with lots of phaser
 
-------------------------|
-------------------5-----|
-------8-------7------7--| x4
--10-------9-------------|

Verse 2 - exactly the same as verse 1

Chorus 2 - Exactly the same as chorus 1

Theres a break with just the acoustic guitar then back into the Verse again
for Verse 3

Then back into the same Chorus for the last chorus.

This isnt 100% perfect but it should guide you in the right direction :) I
will correct it later when i work it all out.
comments
We did not receive enough feedback on this tab! Please rate:
print report bad tab
1 2 3 4 5
1 comment total.
0 reply
kr094 wrote on August 25 2011, 10:11 am

It's generally easier to play

G|----------------------|
D|----------------------|
A|----8-------7---10--7-|
E|10------9-------------|

than what you have

I want to post or [tab]
guest
You may want to rate the tab now too:
select rating
Please do not post tabs as comments. Select "correction" instead!