Oops, an error
Loading. Please wait.

City Of Delusion Bass Tab

version 4
version 4

Whole song

by Muse
1,527 views 3 this week
1 commentread comment
1 2 3 4 5
excellent!
x 3
add to favorites
launch autoscroll
font size
0
reset
guitar tuner
Tab Pro tools
  • play this tab
  • loop segment
  • change instrument
  • show fretboard
  • metronome
×
Best way to learn
"City Of Delusion"
Autoscroll
slow
fast
+/-
esc
set tempo
stop
Difficulty
intermediate
I think this one is on the octave chris plays. Jam with some muff fuzz and wah effect. 
Enjoy!


Guitar Intro

Verse 1
G||----10----9--12-9-|----10----9--12-9-|----10----9--12-9-|---10----9--12-9-|
D||-12----11---------|-12----11---------|-12----11---------|12----11---------|
A||------------------|------------------|------------------|-----------------|
E||------------------|------------------|------------------|-----------------|

G||----10-9-12-15--12-|----14-12-15--17-15-|----14----12--15-12-|----10----9--12-9-|
D||-12----------------|-15-----------------|-15----14-----------|-12----11---------|
A||-------------------|--------------------|--------------------|------------------|
E||-------------------|--------------------|--------------------|------------------|

G||---9---10--12-10-|---9---10--12-10-|---9----9--10-9-|---7--------------|
D||-7---8-----------|-7---8-----------|-7---5----------|------------------|
A||-----------------|-----------------|----------------|-8----7-10--13-12-|
E||-----------------|-----------------|----------------|------------------|


Pre-Chorus

G||----10----9--12-9-|----10----9--12-9-|----10----9--12-9-|-----------------|
D||-12----11---------|-12----11---------|-12----11---------|-----------------|
A||------------------|------------------|------------------|-5-5-5-----------|
E||------------------|------------------|------------------|-----------------|


Chorus 1

G||-----------|-----------|-----------|
D||-----------|-----------|-----------|
A||--8-8-8----|--4-4-4----|--5-5-5----|
E||-----------|-----------|-----------|

G||-----------|-----------|-----------|
D||-----------|--5-5-5----|--3-3-3----|
A||-----------|-----------|-----------|
E||--5-5-5----|-----------|-----------|

G||-----------|-----------|-----------|
D||--2-2-2----|-----------|-----------|
A||-----------|--5-5-5----|-----------|
E||-----------|-----------|--5-5-5----|


G||---------------|---------------|---------------|
D||--5-5-5---5-5--|--3-3-3---3-3--|---------------|
A||---------------|---------------|--4-4-4---4-4--|
E||---------------|---------------|---------------|

G||---------------|---------------|---------------|
D||---------------|---------------|--5-5-5---5-5--|
A||--5-5-5---5-5--|---------------|---------------|
E||---------------|--5-5-5---5-5--|---------------|

G||---------------|---------------|---------------|
D||--3-3-3---3-3--|--2-2-2---2-2--|--0-0-0---0-0--|
A||---------------|---------------|---------------|
E||---------------|---------------|---------------|

End of Chorus

G||---9---10--12-10-|---9---10--12-10-|---9----9--10-9-|---7--------------|
D||-7---8-----------|-7---8-----------|-7---5----------|------------------|
A||-----------------|-----------------|----------------|-8----7-10--13-12-|
E||-----------------|-----------------|----------------|------------------|


Verse 2 (With WAH Effect) X2
                                                                          
G||----10----9--12-9-|----10----9--12-9-|----10----9--12-9-|----10----9--12-9-|
D||-12----11---------|-12----11---------|-12----11---------|-12----11---------|
A||------------------|------------------|------------------|------------------|
E||------------------|------------------|------------------|------------------|

G||----10-9-12-15--12-|----14-12-15--17-15-|----14----12--15-12-|----10----9--12-9-|
D||-12----------------|-15-----------------|-15----14-----------|-12----11---------|
A||-------------------|--------------------|--------------------|------------------|
E||-------------------|--------------------|--------------------|------------------|

G||---9---10--12-10-|---9---10--12-10-|---9----9--10-9-|---7--------------|
D||-7---8-----------|-7---8-----------|-7---5----------|------------------|
A||-----------------|-----------------|----------------|-8----7-10--13-12-|
E||-----------------|-----------------|----------------|------------------|

Pre-Chorus

G||---10----9--12-9--|----10----9--12-9-|----10----9--12-9-|-----------------|
D||-12----11---------|-12----11---------|-12----11---------|-----------------|
A||------------------|------------------|------------------|-5-5-5-----------|
E||------------------|------------------|------------------|-----------------|

Chorus 2

G||-----------|-----------|-----------|
D||-----------|-----------|-----------|
A||--8-8-8----|--4-4-4----|--5-5-5----|
E||-----------|-----------|-----------|

G||-----------|-----------|-----------|
D||-----------|--5-5-5----|--3-3-3----|
A||-----------|-----------|-----------|
E||--5-5-5----|-----------|-----------|

G||-----------|-----------|-----------|
D||--2-2-2----|-----------|-----------|
A||-----------|--5-5-5----|-----------|
E||-----------|-----------|--5-5-5----|


G||---------------|---------------|---------------|
D||--5-5-5---5-5--|--3-3-3---3-3--|---------------|
A||---------------|---------------|--4-4-4---4-4--|
E||---------------|---------------|---------------|

G||---------------|---------------|---------------|
D||---------------|---------------|--5-5-5---5-5--|
A||--5-5-5---5-5--|---------------|---------------|
E||---------------|--5-5-5---5-5--|---------------|

G||---------------|---------------|---------------|
D||--3-3-3---3-3--|--2-2-2---2-2--|--0-0-0---0-0--|
A||---------------|---------------|---------------|
E||---------------|---------------|---------------|


End of Chorus

G||---9---10--12-10-|---9---10--12-10-|---9----9--10-9-|---7--------------|
D||-7---8-----------|-7---8-----------|-7---5----------|------------------|
A||-----------------|-----------------|----------------|-8----7-10--13-12-|
E||-----------------|-----------------|----------------|------------------|


Guiar Solo


Intrumental PArt (Trumpet)

G||----10----9--12-9-|----10----9--12-9-|----10----9--12-9-|----10----9--12-9-|
D||-12----11---------|-12----11---------|-12----11---------|-12----11---------|
A||------------------|------------------|------------------|------------------|
E||------------------|------------------|------------------|------------------|

G||----10-9-12-15--12-|----14-12-15--17-15-|----14----12--15-12-|----10----9--12-9-|
D||-12----------------|-15-----------------|-15----14-----------|-12----11---------|
A||-------------------|--------------------|--------------------|------------------|
E||-------------------|--------------------|--------------------|------------------|

G||---9---10--12-10-|---9---10--12-10-|---9----9--10-9-|---7--------------|
D||-7---8-----------|-7---8-----------|-7---5----------|------------------|
A||-----------------|-----------------|----------------|-8----7-10--13-12-|
E||-----------------|-----------------|----------------|------------------|


Pre-Chorus

G||----10----9--12-9-|----10----9--12-9-|----10----9--12-9-|-----------------|
D||-12----11---------|-12----11---------|-12----11---------|-----------------|
A||------------------|------------------|------------------|-5-5-5-----------|
E||------------------|------------------|------------------|-----------------|

Chorus 3

G||-----------|-----------|-----------|
D||-----------|-----------|-----------|
A||--8-8-8----|--4-4-4----|--5-5-5----|
E||-----------|-----------|-----------|

G||-----------|-----------|-----------|
D||-----------|--5-5-5----|--3-3-3----|
A||-----------|-----------|-----------|
E||--5-5-5----|-----------|-----------|

G||-----------|-----------|-----------|
D||--2-2-2----|-----------|-----------|
A||-----------|--5-5-5----|-----------|
E||-----------|-----------|--5-5-5----|


G||---------------|---------------|---------------|
D||--5-5-5---5-5--|--3-3-3---3-3--|---------------|
A||---------------|---------------|--4-4-4---4-4--|
E||---------------|---------------|---------------|

G||---------------|---------------|---------------|
D||---------------|---------------|--5-5-5---5-5--|
A||--5-5-5---5-5--|---------------|---------------|
E||---------------|--5-5-5---5-5--|---------------|

G||---------------|---------------|---------------|
D||--3-3-3---3-3--|--2-2-2---2-2--|---------------|
A||---------------|---------------|--5-5-5---5-5--|
E||---------------|---------------|---------------|


End

G||---9---10--12-10-|---9---10--12-10-|---9----9--10-9-|---7--------------|
D||-7---8-----------|-7---8-----------|-7---5----------|------------------|
A||-----------------|-----------------|----------------|-8----7-10--13-12-|
E||-----------------|-----------------|----------------|------------------|


Tabbed by HUSO
comments
We did not receive enough feedback on this tab! Please rate:
print report bad tab
1 2 3 4 5
1 comment total.
0 reply
FDIX wrote on November 22 2010, 03:08 pm

This is definitely what Chris plays live but the end section's wrong; I'll see if I can correct it!

I want to post or [tab]
guest
You may want to rate the tab now too:
select rating
Please do not post tabs as comments. Select "correction" instead!