Oops, an error
Loading. Please wait.

Con-Science Tab

version 4
version 4

Whole song

by Muse
242 views 1 this week
no commentswrite comment
1 2 3 4 5
please rate
add to favorites
launch autoscroll
font size
0
reset
how to read this tab
guitar tuner
Autoscroll
slow
fast
+/-
esc
set tempo
stop
Help us to improve Ultimate-Guitar.com Take our survey!
×
Difficulty
novice
Vocal arr. for guitar
Slides indicate slurs
Piano intro; 4 bars, no vocals, then

e|--------------|--------|------------------|-------5|5---------6p3-----|2------5|
B|o-------------|-------o|-3----------4----3|1-------|------------------|--------|
G|--0----5-----3|2-------|------0-----------|--------|------------------|--------|
D|--------------|--------|------------------|--------|------------------|--------|
A|o-------------|-------o|------------------|--------|------------------|--------|
E|--------------|--------|------------------|--------|------------------|--------|
1.  I  can't pre-tend     que-stions here to stay. In fear;________________    in
2.choose  how  it ends
  
e|-5----3-----|2------5|5-------3------2-3|2------5|5-----3-----|2-------|
B|------------|--------|------------------|--------|------------|--------|
G|------------|--------|------------------|--------|------------|--------|
D|------------|--------|------------------|--------|------------|--------|
A|------------|--------|------------------|--------|------------|--------|
E|------------|--------|------------------|--------|------------|--------|
   so   -      rrow; in fear;_______________     in so     -    rrow

e|------------------|--------|------------------|--------|
B|------------------|--------|------------------|--------|
G|-----5-----------4|2-------|----------5------4|2-------|
D|5-----------------|-------5|------------------|--------|
A|------------------|--------|5-----------------|--------|
E|------------------|--------|------------------|--------|
  I   can't     pre-tend, con-sumed    by    an  ends;

e|------------------|--------|------------------|---------5|
B|3---------4------3|1-------|----------4-------|----------|
G|------------------|--------|-----------------4|2---------|
D|------------------|--------|5-----------------|----------|
A|------------------|--------|------------------|----------|
E|------------------|--------|------------------|----------|
  try,     bend  the  rules   ribs      out  the cruels. In

  

e|5------3----------|2------5|5---/6/5/3--------|2------5|
B|------------------|--------|------------------|--------|
G|------------------|--------|------------------|--------|
D|------------------|--------|------------------|--------|
A|------------------|--------|------------------|--------|
E|------------------|--------|------------------|--------|
  fear;_______________     in so           -     rrow;  in


  

e|5----6-5-3-----2-3|2------5|5-----3----|2-------|
B|------------------|--------|-----------|--------|
G|------------------|--------|-----------|--------|
D|------------------|--------|-----------|--------|
A|------------------|--------|-----------|--------|
E|------------------|--------|-----------|--------|
  fear;_______________     in so    -     rrow.

 
e|------------------|--------|------------------|--------|
B|o-----------------|-------o|3------4---------3|1-------|
G|--------5--------4|2-------|------------------|--------|
D|-5----------------|--------|------------------|--------|
A|o-----------------|-------o|------------------|--------|
E|------------------|--------|------------------|--------|
1. I     can't   pre-tend;    you slipped      a-way
2.choose  how     it ends;


e|-------------------|-------5|5---------3-------|2------5|
B|3-------------4---3|1-------|------------------|--------|
G|-------------------|--------|------------------|--------|
D|--------5----------|--------|------------------|--------|
A|-------------------|--------|------------------|--------|
E|-------------------|--------|------------------|--------|
  que - stions you to stay  in  so         -       rrow; in


e|5r----6/5/3-------|2------5|5r----/6/5/3r-----|2r-----5|
B|------------------|--------|------------------|--------|
G|------------------|--------|------------------|--------|
D|------------------|--------|------------------|--------|
A|------------------|--------|------------------|--------|
E|------------------|--------|------------------|--------|
  fear;_______________     in so         -       rrow;  in


e|5---/777/5/3--/2/3|2r----10|10--10/10/10/8r---7|5-----10|
B|------------------|--------|-------------------|--------|
G|------------------|--------|-------------------|--------|
D|------------------|--------|-------------------|--------|
A|------------------|--------|-------------------|--------|
E|------------------|--------|-------------------|--------|
  fear;_______________   in   so   -      -      rrow.  In

  

e|10--/101010/88r--7|5-----10|10--10/10/10/88r--7|5-------|
B|------------------|--------|-------------------|--------|
G|------------------|--------|-------------------|--------|
D|------------------|--------|-------------------|--------|
A|------------------|--------|-------------------|--------|
E|------------------|--------|-------------------|--------|
  fear;_______________   in   so   -      -      rrow.

9 bars rest then to end

That's pretty much it.  Tabbed from this: http://musewiki.org/Con-Science_%28piano_sheetpaper%29
so credit to Michael McWilliams for this arrangement, I just tabbed the vocal part for guitar
Suggest correction
Give kudos to tab author, rate the tab!
1 2 3 4 5
comments
print report bad tab
guest
You may want to rate the tab now too:
select rating
Please do not post tabs as comments. Select "correction" instead!