Oops, an error
Loading. Please wait.

Dead Star Tab

version 1
version 1
by Muse
3,441 views 3 this week
1 commentread comment
1 2 3 4 5
please rate
add to favorites
launch autoscroll
font size
0
reset
how to read this tab
guitar tuner
Tab Pro tools
  • play this tab
  • loop segment
  • change instrument
  • show fretboard
  • metronome
×
Best way to learn
"Dead Star"
Autoscroll
slow
fast
+/-
esc
set tempo
stop
Contributor
Difficulty
Tuning
intermediate
D A D G B E
Drop-d tuning.

feedback and noise.

Intro
e|-----------------|--------------------|
b|-----------------|--------------------|
g|-----------------|--------------------|
d|-----------------|--------------------| x3
a|-----------------|--------------------|
d|-12-0-0--12-0-0--|-12-0-5-6-7-0-10-11-|

e|-----------------|-------------------------|
b|-----------------|-------------------------|
g|-----------------|------14b14b14b14b14b14b-|
d|-----------------|------14b14b14b14b14b14b-| x4
a|-----------------|-------------------------|
d|-12-0-0--12-0-0--|-12-0--------------------|

e|-----------------|--------------------|
b|-----------------|--------------------|
g|-----------------|--------------------|
d|-----------------|--------------------| 
a|-----------------|--------------------|
d|-12-0-0--12-0-0--|-12-0-5-6-7-0-10-11-|

Verse 1 (played pretty fast)

                    "Shame on you..."
e|-1-------1-------|-1-------1-------|-1-------1-------|-1-------1-------|
b|---3---3---3---2-|---3---3---3---2-|---2---2---2---2-|---2---2---2---2-|
g|-----2-------2---|-----2-------2---|-----2-------2---|-----2-------2---|
d|-----------------|-----------------|-----------------|-----------------|
a|-----------------|-----------------|-----------------|-----------------|
d|-----------------|-----------------|-----------------|-----------------|

 |-1-------1-------|-1-------1-------|-1-------1-------|-1-------1-------|
 |---1---1---1---1-|---1---1---1---1-|---0---0---0---0-|---0---0---0---0-|
 |-----2-------2---|-----2-------2---|-----1-------1---|-----1-------1---|
 |-----------------|-----------------|-----------------|-----------------|
 |-----------------|-----------------|-----------------|-----------------|
 |-----------------|-----------------|-----------------|-----------------|
  "We're all to blame..."
 |-0-------0-------|-0-------0-------|-0-------0-------|-0-------0-------|
 |---0---0---0---0-|---0---0---0---0-|-----------------|-----------------|
 |-----0-------0---|-----0-------0---|---3-0-3---3-0-3-|---3-0-3---3-0-3-|
 |-----------------|-----------------|-----------------|-----------------|
 |-----------------|-----------------|-----------------|-----------------|
 |-----------------|-----------------|-----------------|-----------------|

 |-----------------|-----------------|-----------------|-----------------|
 |-3-------3-------|-3-------3-------|-3-------3-------|-3-------3-------|
 |---2---2---2---2-|---2---2---2---2-|---2---2---2---2-|---2---2---2---2-|
 |-----3-------3---|-----3-------3---|-----3-------3---|-----3-------3---|
 |-----------------|-----------------|-----------------|-----------------|
 |-----------------|-----------------|-----------------|-----------------|

                    "Wasting and burning out yeah..."
e|-1-------1-------|-1-------1-------|-1-------1-------|-1-------1-------|
b|---3---3---3---2-|---3---3---3---2-|---2---2---2---2-|---2---2---2---2-|
g|-----2-------2---|-----2-------2---|-----2-------2---|-----2-------2---|
d|-----------------|-----------------|-----------------|-----------------|
a|-----------------|-----------------|-----------------|-----------------|
d|-----------------|-----------------|-----------------|-----------------|

 |-1-------1-------|-1-------1-------|-1-------1-------|-1-------1-------|
 |---1---1---1---1-|---1---1---1---1-|---0---0---0---0-|---0---0---0---0-|
 |-----2-------2---|-----2-------2---|-----1-------1---|-----1-------1---|
 |-----------------|-----------------|-----------------|-----------------|
 |-----------------|-----------------|-----------------|-----------------|
 |-----------------|-----------------|-----------------|-----------------|
  
 |-0-------0-------|-0-------0-------|-0-------0-------|-0-------0-------|
 |---0---0---0---0-|---0---0---0---0-|-----------------|-----------------|
 |-----0-------0---|-----0-------0---|---3-0-3---3-0-3-|---3-0-3---3-0-3-|
 |-----------------|-----------------|-----------------|-----------------|
 |-----------------|-----------------|-----------------|-----------------|
 |-----------------|-----------------|-----------------|-----------------|

 Pre-chorus
  
  "it's comin our way..."
e|-----------------|---------------------|
b|-----------------|---------------------|
g|-----------------|---------7*-7*-7*-7*-| *=natural harmonic
d|-----------------|---------------------|
a|-----------------|---------------------|
d|-4-4-4-4-4-4-4-4-|-5-5-5-5-------------|

Chorus
        
e|------------------|-----------------|-----------------|-----------------|
b|o-----------------|-----------------|-----------------|-----------------|
g|------------------|-----------------|-----------------|-----------------|
d|--8-8-8-8-8-8-8-8-|-8-8-8-8-8-8-8-8-|-3-3-3-3-3-3-3-3-|-3-3-3-3-3-3-3-3-|
a|o-8-8-8-8-8-8-8-8-|-8-8-8-8-8-8-8-8-|-3-3-3-3-3-3-3-3-|-3-3-3-3-3-3-3-3-|
d|--8-8-8-8-8-8-8-8-|-8-8-8-8-8-8-8-8-|-3-3-3-3-3-3-3-3-|-3-3-3-3-3-3-3-3-|

e|-----------------|------------------|
b|-----------------|-----------------o|
g|-----------------|------------------|
d|-7-7-7-7-7-7-7-7-|-7-7-7-7-7-7-7-7--|
a|-7-7-7-7-7-7-7-7-|-7-7-7-7-7-7-7-7-o|
d|-7-7-7-7-7-7-7-7-|-7-7-7-7-7-7-7-7--|

 Interlude
e|-----------------|--------------------|
b|-----------------|--------------------|
g|-----------------|--------------------|
d|-----------------|--------------------| x4
a|-----------------|--------------------|
d|-12-0-0--12-0-0--|-12-0-5-6-7-0-10-11-|

Verse (similar to verse 1)

Pre

Chorus

Interlude

Bridge (these all are triplets)                  T=tap
     T T  T T  T T  T T  T T  T
e|-------------------------------|-
b|-------------------------------|-
g|-------------------------------|-
d|-12-0-12-0-12-0-12-0-12-0-12-0-|-X2 
a|-------------------------------|-
d|-------------------------------|-
     T T  T T  T T  T T  T T  T
e|-------------------------------|-
b|-------------------------------|-
g|-------------------------------|-
d|-13-0-13-0-13-0-13-0-13-0-13-0-|-x2
a|-------------------------------|-
d|-------------------------------|-

     T T  T T  T T  T T  T T  T
e|-------------------------------|-
b|-------------------------------|-
g|-------------------------------|-
d|-14-0-14-0-14-0-14-0-14-0-14-0-|-x2
a|-------------------------------|-
d|-------------------------------|-
     T T  T T  T T  T T  T T  T
e|-------------------------------|-
b|-------------------------------|-
g|-------------------------------|-
d|-15-0-15-0-15-0-15-0-15-0-15-0-|-x2
a|-------------------------------|-
d|-------------------------------|-

Outro

e|-----------------|--------------------|
b|-----------------|--------------------|
g|-----------------|--------------------|
d|-----------------|--------------------| x8
a|-----------------|--------------------|
d|-12-0-0--12-0-0--|-12-0-5-6-7-0-10-11-|


comments
We did not receive enough feedback on this tab! Please rate:
print report bad tab
1 2 3 4 5
1 comment total.
0 reply
hernandeznathan wrote on September 5 2009, 06:07 pm

These might be the best tabs for Dead Star! Great work!

I want to post or [tab]
guest
You may want to rate the tab now too:
select rating
Please do not post tabs as comments. Select "correction" instead!