Oops, an error
Loading. Please wait.

Dead Star Bass Tab

version 4
version 4
by Muse
824 views 3 this week
1 commentread comment
1 2 3 4 5
please rate
add to favorites
launch autoscroll
font size
0
reset
guitar tuner
Autoscroll
slow
fast
+/-
esc
set tempo
stop
Help us to improve Ultimate-Guitar.com Take our survey!
×
Author
Difficulty
novice
Hello. This song is from muse's 'Hullabaloo' album. It is pretty easy to play, but 
timing is important with the repetitive open E strings. especially as it is not so fast. 
Great track as well some of Muse's heavier stuff

*Turn on overdrive if you can*


G|----------------------------------|
D|----------------------------------|
A|--7------7-----7-----------5-6----|
E|----0-0----0-0---0-5-6-7-0--------|     x4


G||:----------------------------------|
D||:----------------------------------|
A||:----------------------------------|
E||:-0-000-0-000-00----0-000-0-000-00-|


G|-----------------------------------:|
D|-----------------------------------:|
A|--------------------------------56-:|
E|--0-0-0---00--00--0000--00-5670----:|    Repeat until 1:01


G|-----------------------------------|
D|-----------------------------------|
A|-----------------------------------|
E|-4-4-4-4-4-4-4-4--5-5-5-5-5-5-5-5--|


G||:----------------------------------|
D||:----------------------------------|
A||:----------------------------------|
E||:-8-8-8-8-8-8-8-8--7-7-7-7-7-7-7-7-|


G|------------------:|---------------|
D|------------------:|---------------|
A|------------------:|---------------|
E|-3-3-3-3-3-3-3-3--:|---------------|


G|-----------------------------------|
D|-----------------------------------|
A|--7------7-----7-----------5-6-----|
E|----0-0----0-0---0-5-6-7-0---------|      x4

-
G||:----------------------------------|
D||:----------------------------------|
A||:----------------------------------|
E||:-0-000-0-000-00----0-000-0-000-00-|


G|-----------------------------------:|
D|-----------------------------------:|
A|--------------------------------56-:|
E|--0-0-0---00--00--0000--00-5670----:| Repeat Until 2:18



G|-----------------------------------|
D|-----------------------------------|
A|-----------------------------------|
E|-4-4-4-4-4-4-4-4--5-5-5-5-5-5-5-5--|


G||:----------------------------------|
D||:----------------------------------|
A||:----------------------------------|
E||:-8-8-8-8-8-8-8-8--7-7-7-7-7-7-7-7-|


G|------------------:|---------------|
D|------------------:|---------------|
A|------------------:|---------------|
E|-3-3-3-3-3-3-3-3--:|---------------|


G|---------------------------------|
D|---------------------------------|
A|--7------7-----7-----------5-6---|
E|----0-0----0-0---0-5-6-7-0-------|      x4


..LET THE GUITAR PLAY UNTIL 3:13..


G|---------------------------------|
D|---------------------------------|
A|--7------7-----7-----------5-6---|
E|----0-0----0-0---0-5-6-7-0-------|      x5

Last one is a bit different..


G|-----------------------------------|
D|-----------------------------------|
A|--7------7-----7-----------5-6-----|
E|----0-0----0-0---0-5-6-7-0------0~-|
Suggest correction
Give kudos to tab author, rate the tab!
1 2 3 4 5
comments
print report bad tab
1 comment total.
0 reply
HAFTX 86 wrote on December 8 2013, 08:39 am

This should be in drop D. The tab is mostly correct only all notes should be lowered 2 halves. Also you're missing a lot of octaves

guest
You may want to rate the tab now too:
select rating
Wanna post a correction for this tab? Suggest correction