Oops, an error
Loading. Please wait.

Dead Star Tab

version 4
version 4
by Muse
2,391 views 3 this week
3 commentsread comments
1 2 3 4 5
worth learning
x 14
add to favorites
launch autoscroll
font size
0
reset
how to read this tab
guitar tuner
Tab Pro tools
  • play this tab
  • loop segment
  • change instrument
  • show fretboard
  • metronome
×
Best way to learn
"Dead Star"
Autoscroll
slow
fast
+/-
esc
set tempo
stop
Contributor
----------------------------------------------------------------------------
                             DEAD STAR - Muse
----------------------------------------------------------------------------
Tabbed by:
Email:
Comments:rate plz   (its probab;y 88% ok so dont be all this is gobshite and all tht ok!
Tuning:drop d tuning

INTRO
e|----------------------------------------------------------------------|
B|----------------------------------------------------------------------|
G|-14-15-15--14-15-15--14-15-15-----------------------------------------|
D|-12-12-12--12-12-12--12-12-12-----------------------------------------|2X
A|----------------------------------------------------------------------|
E|-------------------------------------3-3-3-3-3------------------------|
harmonic                               * * * * *

MAIN RIFF
e|------------------------------------------|
B|------------------------------------------|
G|------------------------------------------|
D|-12-0-0---12-0-0---12-0-7--8--9-10-12-----|
A|-12-0-0---12-0-0---12-0-7--8--9-10-12-----|
E|-10-0-0---10-0-0---10-0-5--6--7--8--9-----|

e|-------------------------------------------|
B|-------------------------------------------|
G|-------------------------------------------|
D|-12-0-0--12-0-0--12-0-0--------------------|
A|-12-0-0--12-0-0--12-0-0--------------------|
E|-10-0-0--10-0-0--10-0-0-3-3-3-3-3----------|
harmonic                  * * * * *

VERSE        the first thing of it  |     the second thingy     
e|----------------------------------|-----------------------|
B|--5-5-5-5-4-2-2-2-----------------|-5-7-7-7-7-7-6---------|
G|--6-5-4-3-2-1-1-1-----------------|-6-6-6-6-5-6-4---------|
D|--6-6-6-5-4-3-2-3-----------------|-6-7-8-7-7-7-6---------|
A|----------------------------------|-----------------------|
E|----------------------------------|-----------------------|

PRE-CHORUS
e|------------------------------------------------|
B|------------------------------------------------|
G|------------------------------------------------|
D|-6666666666666666-777777777---------------------|
A|-6666666666666666-777777777---------------------|
E|-4444444444444444-555555555--3-3-3-3-3-3--------|
harmonic                       * * * * * *

CHORUS
e|-------------------------------------------------------------------------|
B|-------------------------------------------------------------------------|
G|-------------------------------------------------------------------------|
D|999999999999999--1010101010101010---555555555555555-999999999999999------|
A|999999999999999--1010101010101010---555555555555555-999999999999999------|
D|777777777777777---888888888888888---333333333333333-777777777777777------|
                         DO AS MUCH TIMES NEEDED 

e|------------------------------------------|
B|------------------------------------------|
G|------------------------------------------|
D|-12-0-0---12-0-0---12-0-7--8--9-10-12-----|
A|-12-0-0---12-0-0---12-0-7--8--9-10-12-----|
E|-10-0-0---10-0-0---10-0-5--6--7--8--9-----|

e|-------------------------------------------|
B|-------------------------------------------|
G|-------------------------------------------|
D|-12-0-0--12-0-0--12-0-0--------------------|
A|-12-0-0--12-0-0--12-0-0--------------------|
E|-10-0-0--10-0-0--10-0-0--3-3-3-3-3---------|
harmonic                   * * * * *  

I DONT NO THE SOLO K, SO WORK IT OUT FOR YOURSELF

BRIDGE
e|-------------------------------------------------------------------------|
B|-------------------------------------------------------------------------|
G|-------------------------------------------------------------------------|
D|-------------------------------------------------------------------------|
A|-------------------------------------------------------------------------|
D|-10-0-0--10-0-0--10-0-5-6-7-8-9-10---10-0-0--10-0-0--10-0-5-6-7-8-9-10---|

e|------------------------------------------|
B|------------------------------------------|
G|------------------------------------------|
D|-12-0-0---12-0-0---12-0-7--8--9-10-12-----|REPEAT AS MANY TIMES NEEDED
A|-12-0-0---12-0-0---12-0-7--8--9-10-12-----|
E|-10-0-0---10-0-0---10-0-5--6--7--8--9-----|

e|-------------------------------------------|
B|-------------------------------------------|
G|-------------------------------------------|
D|-12-0-0--12-0-0--12-0-0--------------------|
A|-12-0-0--12-0-0--12-0-0--------------------|
E|-10-0-0--10-0-0--10-0-0---3-3-3-3----------|
harmonic                    * * * *                          


THEN WORK OUT WAT TO DO AFTER THT OK
comments
print report bad tab
3 comments total.
0 reply
tiftcte wrote on March 13 2004, 12:00 am

solo:

tremelo
B|-0-12-0-12-0-12------------------------------------------------|

move the 12 to 13 then 14 then 15 then to the interlude/bridge

0 reply
Emenius Sleepus wrote on April 13 2004, 12:00 am

that;s kool and all, just one little question: why in the start u say it's drop d tuning (which it is) but then your whole abtual tab is in standard? not a bad tab though

0 reply
tiftcte wrote on June 20 2004, 12:00 am

cuz i was usin the ug tab template

I want to post or [tab]
guest
You may want to rate the tab now too:
select rating
Please do not post tabs as comments. Select "correction" instead!