Oops, an error
Loading. Please wait.

Dead Star Tab

version 5
version 5
by Muse
5,089 views 1 this week
1 commentread comment
1 2 3 4 5
accurate
x 9
add to favorites
launch autoscroll
font size
0
reset
how to read this tab
guitar tuner
Tab Pro tools
  • play this tab
  • loop segment
  • change instrument
  • show fretboard
  • metronome
Autoscroll
slow
fast
+/-
esc
set tempo
stop
Contributor
band: Muse
song: DeadStar
tabbed by:funeralforafrie
band: Muse
song: DeadStar
tabbed by:funeralforafrie

notes: tabbed by watching the Muse Hullabaloo DVD (Live At Le Zenith)
Pretty easy going, just make sure you pick the verse's pretty fast!


Intro (w/dist.)  x4                       x1
e|---------------------------------| |--------|
B|---------------------------------| |--------|
G|-7-7-7-7-7-7-7-7-7-7-7-7-7-7-7-7-| |--------|
D|-x-x-x-x-x-x-x-x-x-x-x-x-x-x-x-x-| |--------|
A|-5-5-5-5-5-5-5-5-5-5-5-5-5-5-5-5-| |-3/15\0-|
D|---------------------------------| |-3/15\0-|

e|----------------------------------------------------------------------|
B|----------------------------------------------------------------------|
G|----------------------------------------------------------------------|
D|----------------------------------------------------------------------|
A|--5-------0--5-----0--5--------------3--4--5-----0--5-----0--5-----0--|
D|-----0-0--0-----0--0-----0--5--6--7-----------0--0-----0--0-----0--0--|

e|-----------------------------|
B|-----------------------------|
G|-----------------------------|
D|-----------------------------| x2
A|--5-----------------3--4--5--|
D|-----0--5--6--7--0-----------|

e|-----------------------------------------------------------------------|
B|--10^--------------------------------------10^-------------------------|
G|--10^--------------------------------------10^-------------------------|
D|-----------------------------------------------------------------------|
A|---------5-----0--5-----------------3--4----------5-----0--5-----------|
D|-------0----0--0-----0--5--6--7--0--------------0----0--0-----0--5--6--|

e|--------------|
B|--------------|
G|--------------|
D|--------------| x2
A|--------3--4--|
D|--7--0--------|

Verses (w/slight dist.)
e|----------------------------------------------------------------------|
B|--6------6------6------6------6------6------6------6------6-----6-----|
G|----7------7------7------7------6------6------6------6------5-----5---|
D|------7------7------7------7------7------7------7------7------7-----7-|
A|----------------------------------------------------------------------|
D|----------------------------------------------------------------------|

e|-----------------------------------------------------------------------|
B|--6------6------6------6------6------6------5------5------5------5-----|
G|----5------5------4------4------4------4------3------3------3------3---|
D|------7------7------6------6------6------6------5------5------5------5-|
A|-----------------------------------------------------------------------|
D|-----------------------------------------------------------------------|

e|--------------------------------1----------------------1--------------|
B|--3------3------3------3--------3------------------3-----------3------|
G|----2------2------2------2------2------------------------------2------|
D|------4------4------4------4----3-------------------------3-----------|
A|----------------------------------------------------------------------|
D|----------------------------------------------------------------------|

e|-------------------------------------------------------------------|
B|--3------3------3------------------6------6------6------6----------|
G|----2------2------2------2-----------7------7------7------7--------|
D|------4------4------4------0----0------7------7------7------7------|
A|-------------------------------------------------------------------|
D|-------------------------------------------------------------------|

e|------------------------------------------------------------------------|
B|--8------8------8------8------8------8------8------8------8------8------|
G|----7------7------7------7------7------7------7------7------7------7----|
D|------8------8------8------8------9------9------9------9------8------8--|
A|------------------------------------------------------------------------|
D|------------------------------------------------------------------------|

e|------------------------------------------------------------------------|
B|--8------8------8------8------8------8------7------7------7------7------|
G|----7------7------6------6------6------6------5------5------5------5----|
D|------8------8------8------8------8------8------7------7------7------7--|
A|------------------------------------------------------------------------|
D|------------------------------------------------------------------------|

e|--------------------------------3---------3-----------------------------|
B|--7------7------7-------------------------3-----------------------------|
G|----5------5------5-----------3----3---3--3-----------------------------|
D|------7-------7------7------5--------5----5--0--0--0--0--0--0--0--0--0--|
A|---------------------------------------------0--0--0--0--0--0--0--0--0--|
D|---------------------------------------------0--0--0--0--0--0--0--0--0--|

Chorus (w/dist.)
e|------------------------------------------------------------------------|
B|-------------------------------------6--6--6--6--6--6--6--5--5--5--5--5-|
G|-10-10-10-10-10-10-10-10-10-10-10-10-5--5--5--5--5--5--5--5--5--5--5--5-|
D|-8--8--8--8--8--8--8--8--8--8--8--8--3--3--3--3--3--3--3--3--3--3--3--3-|
A|-8--8--8--8--8--8--8--8--8--8--8--8--3--3--3--3--3--3--3--3--3--3--3--3-|
D|-8--8--8--8--8--8--8--8--8--8--8--8--3--3--3--3--3--3--3--3--3--3--3--3-|

e|-------------------------------------------------------------------|
B|-------------------------------------------------------------------|
G|-6--6--6--6--6--6--6--6--6--6--6--6--7--7--7--7--7--7--7-----------|
D|-7--7--7--7--7--7--7--7--7--7--7--7--8--8--8--8--8--8--8-----------|
A|-7--7--7--7--7--7--7--7--7--7--7--7--8--8--8--8--8--8--8-----------|
D|-7--7--7--7--7--7--7--7--7--7--7--7--8--8--8--8--8--8--8--8\3/22---|

e|------------------------------------------------------------------------|
B|-6--6--6--6--6--6--6--6--6--5--5--5-------------------------------------|
G|-5--5--5--5--5--5--5--5--5--5--5--5--6--6--6--6--6--6--6--6--6--6--6--6-|
D|-3--3--3--3--3--3--3--3--3--3--3--3--7--7--7--7--7--7--7--7--7--7--7--7-|
A|-3--3--3--3--3--3--3--3--3--3--3--3--7--7--7--7--7--7--7--7--7--7--7--7-|
D|-3--3--3--3--3--3--3--3--3--3--3--3--7--7--7--7--7--7--7--7--7--7--7--7-|

Solo:

Notes: Effect is most probably a pitch shifter, randomly throw it in
and see where it sounds best, live it appears he is just hammering on
and pulling off not picking, but see what you prefer

e|--------------------------------------------------------------------------|
B|--------------------------------------------------------------------------|
G|--------------------------------------------------------------------------|
D|-12-0-12-0-12-0-12-0-12-0-12-0-12-0-12-0-12-0-12-0-12-0-12-0-12-0-12-0-12-|
A|--------------------------------------------------------------------------|
D|--------------------------------------------------------------------------|


e|--------------------------------------------------------------------------|
B|--------------------------------------------------------------------------|
G|--------------------------------------------------------------------------|
D|-13-0-13-0-13-0-13-0-13-0-13-0-13-0-13-0-13-0-13-0-13-0-13-0-13-0-13-0-13-|
A|--------------------------------------------------------------------------|
D|--------------------------------------------------------------------------|


e|--------------------------------------------------------------------------|
B|--------------------------------------------------------------------------|
G|--------------------------------------------------------------------------|
D|-14-0-14-0-14-0-14-0-14-0-14-0-14-0-14-0-14-0-14-0-14-0-14-0-14-0-14-0-14-|
A|--------------------------------------------------------------------------|
D|--------------------------------------------------------------------------|


e|-------------------------------------------------------------------------|
B|-------------------------------------------------------------------------|
G|-------------------------------------------------------------------------|
D|-15-0-15-0-15-0-15-0-15-0-15-0-15-0-15-0-15-0-15-0-15--0--0--0--0--0--0--|
A|-------------------------------------------------------0--0--0--0--0--0--|
D|-------------------------------------------------------0--0--0--0--0--0--|
comments
print report bad tab
1 comment total.
0 reply
Emenius Sleepus wrote on April 13 2004, 12:00 am

don't know y they rated this 3 at the time of my comment.. it's a better tab than some that I've seen on this site

I want to post or [tab]
guest
You may want to rate the tab now too:
select rating
Please do not post tabs as comments. Select "correction" instead!