Oops, an error
Loading. Please wait.

Dead Star Tab

version 6
version 6
by Muse
20,752 views 60 this week
2 commentsread comments
1 2 3 4 5
excellent!
x 11
add to favorites
launch autoscroll
font size
0
reset
how to read this tab
guitar tuner
Autoscroll
slow
fast
+/-
esc
set tempo
stop
Help us to improve Ultimate-Guitar.com Take our survey!
×
Author
Tuning
D A D G B E
-----------------------------------------------------------------------------
                             DEAD STAR - Muse
-----------------------------------------------------------------------------
Tabbed by: Darclaus11
Email: beadybrain@yahoo.co.uk

Tuning:Drop D (DADGBe)

All of the tabs of this song were either not accurate enough,
or Hullabaloo versions, so I decided to have a go. 
It's my first tab, so cut me some slack.

Intro:

e|--------------------------------------------------------------------------|
B|--9--10--10----9--10--10----9--10--10-------------------------------------|
G|--7--7---7-----7--7---7-----7--7---7--------------------------------------|
D|--0--0---0-----0--0---0-----0--0---0--3*-3*-3*-3*-------------------------|
A|--------------------------------------------------------------------------|
D|--------------------------------------------------------------------------|

e|--------------------------------------------------------------------------|
B|--9--10--10----9--10--10----9--10--10-------------------------------------|
G|--7--7---7-----7--7---7-----7--7---7--------------------------------------|
D|--0--0---0-----0--0---0-----0--0---0--------------------------------------|
A|--------------------------------------------------------------------------|
D|--------------------------------------3*-3*-3*-3*-------------------------|

Big Riff:

e|--------------------------------------------------------------------------|
B|--------------------------------------------------------------------------|
G|--------------------------------------------------------------------------|
D|--7-------7-------7---------------7-------7-------7-----------------------|
A|--5-0-0---5-0-0---5-0---------3-4-5-0-0---5-0-0---5-0---------3-4---------|
D|----0-0-----0-0-----0-5-6-7-0-------0-0-----0-0-----0-5-6-7-0-------------|

e|--------------------------------------------------------------------------|
B|--9-------9-------9-------------------9-------9-------9-------------------|
G|--7-------7-------7-------------------7-------7-------7-------------------|
D|--0-------0-------0-------------------0-------0-------0-------------------|
A|----0-0-----0-0-----0-0-----------------0-0-----0-0-----0-0---------------|
D|----0-0-----0-0-----0-0-3*-3*-3*-3*-----0-0-----0-0-----0-0-3*-3*-3*-3*---|

Verse:
PM all
e|--------------------------------------------------------------------------|
B|--6-------6-------6-------6-------6-------6-------6-------6---------------|
G|----7---7---7---7---7---7---7---7---6---6---6---6---6---6---6---6---------|
D|------7-------7-------7-------7-------7-------7-------7-------7-----------|
A|--------------------------------------------------------------------------|
D|--------------------------------------------------------------------------|
    
e|--------------------------------------------------------------------------|
B|--6-------6-------6-------6-------6-------6-------6-------6---------------|
G|----5---5---5---5---5---5---5---5---4---4---4---4---4---4---4---4---------|
D|------7-------7-------7-------7-------6-------6-------6-------6-----------|
A|--------------------------------------------------------------------------|
D|--------------------------------------------------------------------------|

e|--------------------------------------------------------------------------|
B|--5-------5-------5-------5-------3-------3-------3-------3---------------|
G|----3---3---3---3---3---3---3---3---2---2---2---2---2---2---2---2---------]
D|------5-------5-------5-------5-------4-------4-------4-------4-----------|
A|--------------------------------------------------------------------------|
D|--------------------------------------------------------------------------|

e|--------------------------------------------------------------------------|
B|--3-------3-------3-------3-------3-------3-------3-------3---------------]
G|----2---2---2---2---2---2---2---2---2---2---2---2---2---2---2---2---------]
D|------3-------3-------3-------3-------4-------4-------4-------4-----------|
A|--------------------------------------------------------------------------|
D|--------------------------------------------------------------------------|

e|--------------------------------------------------------------------------|
B|--6-------6-------6-------6-------8-------8-------8-------8----------------
G|----7---7---7---7---7---7---7---7---7---7---7---7---7---7---7---7---------|
D|------7-------7-------7-------7-------8-------8-------8-------8-----------|
A|--------------------------------------------------------------------------|
D|--------------------------------------------------------------------------|

e|--------------------------------------------------------------------------|
B|--8-------8-------8-------8-------8-------8-------8-------8---------------|
G|----7---7---7---7---7---7---7---7---7---7---7---7---7---7---7---7---------|
D|------9-------9-------9-------9-------8-------8-------8-------8-----------|
A|--------------------------------------------------------------------------|
D|--------------------------------------------------------------------------|

e|--------------------------------------------------------------------------|
B|--8-------8-------8-------8-------7-------7-------7-------7---------------|
G|----6---6---6---6---6---6---6---6---5---5---5---5---5---5---5---5---------|
D|------8-------8-------8-------8-------7-------7-------7-------7-----------|
A|--------------------------------------------------------------------------|
D|--------------------------------------------------------------------------|

Bridge:

e|--------------------------------------------------------------------------|
B|--------------------------------------------------------------------------|
G|--------------------------------------------------------------------------|
D|--4-4-4-4-4-4-4-4-4-4-4-4-4-4-4-4-5-5-5-5-5-5-5-5-------------------------]
A|--4-4-4-4-4-4-4-4-4-4-4-4-4-4-4-4-5-5-5-5-5-5-5-5-------------------------|
D|--4-4-4-4-4-4-4-4-4-4-4-4-4-4-4-4-5-5-5-5-5-5-5-5-3*-3*-3*-3*-3*-3*-3*-3*-|
  PM-----------------------------------------------

Chorus:

e|--------------------------------------------------------------------------|
B|--------------------------------------------------------------------------|
G|--------------------------------------------------------------------------|
D|--8------------3------------7------------8------------3-----------7-------|
A|--8-x16--------3x16---------7-x16--------8-x16--------3-x16-------7-x16---|
D|--8------------3------------7------------8------------3-----------7-------|

Big Riff
Verse
Bridge 
Chorus
Big Riff

Solo:
I use a digitech whammy pedal for every other four,
but if you dont have one, try playing octaves without the hammer ons. 
e|--------------------------------------------------------------------------|
B|--------------------------------------------------------------------------|
G|--------------------------------------------------------------------------|
D|-0h120h120h120h120h120h120h120h120h120h120h120h120h120h120h120h12---------|
A|--------------------------------------------------------------------------|
D|--------------------------------------------------------------------------|

e|--------------------------------------------------------------------------|
B|--------------------------------------------------------------------------|
G|--------------------------------------------------------------------------|
D|-0h130h130h130h130h130h130h130h130h130h130h130h130h130h130h130h13---------|
A|--------------------------------------------------------------------------|
D|--------------------------------------------------------------------------|

e|--------------------------------------------------------------------------|
B|--------------------------------------------------------------------------|
G|--------------------------------------------------------------------------|
D|-0h140h140h140h140h140h140h140h140h140h140h140h140h140h140h140h14---------|
A|--------------------------------------------------------------------------|
D|--------------------------------------------------------------------------|

e|--------------------------------------------------------------------------|
B|--------------------------------------------------------------------------|
G|--------------------------------------------------------------------------|
D|-0h150h150h150h150h150h150h150h150h150h150h150h150h150h150h150h15---------|
A|--------------------------------------------------------------------------|
D|--------------------------------------------------------------------------|

Outro:

e|--------------------------------------------------------------------------|
B|--------------------------------------------------------------------------|
G|--------------------------------------------------------------------------|
D|--------------------------------------------------------------------------|
A|--5-------5-------5-----------3-4-5-------5-------5-----------3-4---------]
D|----0-0-----0-0-----0-5-6-7-0-------0-0-----0-0-----0-5-6-7-0-------------|

e|--------------------------------------------------------------------------|
B|--------------------------------------------------------------------------|
G|--------------------------------------------------------------------------|
D|--7-------7-------7---------------7-------7-------7-----------------------|
A|--5-0-0---5-0-0---5-0---------3-4-5-0-0---5-0-0---5-0---------3-4---------|
D|----0-0-----0-0-----0-5-6-7-0-------0-0-----0-0-----0-5-6-7-0-------------|

e|--------------------------------------------------------------------------|
B|--9-------9-------9------------------9-------9-------9--------------------|
G|--7-------7-------7------------------7-------7-------7--------------------|
D|--0-------0-------0------------------0-------0-------0--------------------|
A|----0-0-----0-0-----0-0----------------0-0-----0-0-----0-0----------------|
D0-0-----0-0-----0-0-3*-3*-3*-3*----0-0-----0-0-----0-0-3*-3*-3*-3*---------|

e|--------------------------------------------------------------------------|
B|--9-------9-------9------------------9-------9-------9--------------------|
G|--7-------7-------7------------------7-------7-------7--------------------|
D|--0-------0-------0------------------0-------0-------0--------------------|
A|----0-0-----0-0-----0-0----------------0-0-----0-0-----0-0----------------|
D|----0-0-----0-0-----0-0-3*-3*-3*-3*----0-0-----0-0-----0-0-3*-3*-3*-3*----|

e|--------------------------------------------------------------------------|
B|--------------------------------------------------------------------------|
G|--------------------------------------------------------------------------|
D|--0----\------------------------------------------------------------------|
A|--0----\------------------------------------------------------------------|
D|--0----\------------------------------------------------------------------|

And that's it. Be sure to tell me if there's anything wrong, or anything you'd like to add.

************************************

| /   slide up
| \   slide down
| h   hammer-on
| p   pull-off
| ~   vibrato
| *   harmonic
| x   Mute note
| b   Bend
| pb  Pre-bend
| br  Bend release
| pbr Pre-bend release
| brb Bend release bend

************************************
Suggest correction
What's this?
You can suggest a correction to this tab. Community and Mods will review your correction and vote to approve or reject it.
comments
print report bad tab
2 comments total.
0 reply
Darclaus11 144 wrote on June 13 2011, 01:00 pm

Oh shit, just realised the 0's on the third to last line are off centre. Just repeat the second to last line twice, folks.

0 reply
jjhurta2 230 wrote on November 3 2014, 01:49 pm

pretty good, but the intro sounds to me more like:

|--------------------------|
|--------------------------|
|-5h7-7---5h7-7---5h7-7----| and then the harmonics
|-0---0---0---0---0---0----|
|--------------------------|
|--------------------------|

guest
You may want to rate the tab now too:
select rating
Please do not post tabs as comments. Select "correction" instead!