Oops, an error
Loading. Please wait.

Defector tab

version 1
version 1

Whole song

Interactive

by Muse
11,507 views 18 this week
1 commentread comment
1 2 3 4 5
x 4
add to favorites
×
Save as Personal and add changes to this tab that will be seen only by you. Learn more ›
×
You can save this tab as Personal to edit and correct it or add notes. All changes will be seen only by you. Learn more »
launch autoscroll
font size
0
reset
how to read this tab
guitar tuner
edit
Autoscroll
slow
fast
+/-
esc
set tempo
stop
Defector - Muse
Tuning: Drop D - DADGBe

[Intro]
e|-------------------------------|-------------------------------------------|
B|-------------------------------|-------------------------------------------|
G|-------------------------------|-------------------------------------------|
D|-------------------------------|-------------------------------------------|
A|-------------------------------|-------------------------------------------|
D|---0-12\-0-12\-0-0-12\-0-12\---|---0-12\-0-12\-0-0-12\-0-12\---------------|

e|-------------------------|-------------------------------------------------|
B|-------------------------|----------------------/6-------------------------|
G|-------------------------|----------------------/5-------------------------|
D|---------------------6-6-|---7-7-7-7--x-x-x--------------------------------|
A|---------------------6-6-|---7-7-7-7--x-x-x--------------------------------|
D|---0-12\-0-12\-0-12\-6-6-|---7-7-7-7--x-x-x--------------------------------|

e|---6-6-6-6-6-6-6-6-|---7-7-------------------------------------------------|
B|---7-7-7-7-7-7-7-7-|---8-8-------------------------------------------------|
G|---6-6-6-6-6-6-6-6-|---7-7-------------------------------------------------|
D|-------------------|-------------------------------------------------------|
A|-------------------|-------------------------------------------------------|
E|-------------------|---------5-4-5-7-8---7---------------------------------|

[Chorus 1]
e|-------------------------|-------------------------------------------------|
B|-------------------------|-------------------------------------------------|
G|-------------------------|-------------------------------------------------|
D|---------------------6-6-|---7-7-7-7---x-x-x-------------------------------|
A|---------------------6-6-|---7-7-7-7---x-x-x-------------------------------|
D|---0-12\-0-12\-0-12\-6-6-|---7-7-7-7---x-x-x-------------------------------|

e|---6-6-6-6-6-6-6-6-|---7-7-------------------------------------------------|
B|---7-7-7-7-7-7-7-7-|---8-8-------------------------------------------------|
G|---6-6-6-6-6-6-6-6-|---7-7-------------------------------------------------|
D|-------------------|-------------------------------------------------------|
A|-------------------|-------------------------------------------------------|
D|-------------------|---------5-4-5-7-8---7---------------------------------| Play through whole section X2

Then Play
e|-------------------------------|-------------------------------------------|
B|-------------------------------|-------------------------------------------|
G|-------------------------------|-------------------------------------------|
D|-------------------------------|-------------------------------------------|
A|-------------------------------|-------------------------------------------|
D|---0-12\-0-12\-0-0-12\-0-12\---|---0-12\-0-12\-0-0-12\-0-12\---------------|

[Verse] No guitar until last bar
e|-------------------|
B|-------------------|
G|-------------------|
D|-------------------|
A|-------------------|
D|---5-4-5-7-8---7---|

Then play the Chorus again, followed by another verse, then another Chorus. 

[Guitar Solo] - Whammy Pedal set to +1.

First half is tremolo picked, second half is picked. I've put a basic gist of the timing just
listen to the track for the rhythm. 
e|---------------------------------|-----------------------------------------|
B|---------------------------------|-----------------------------------------|
G|-11--11--11--11--14--14--12--12--|-11--11--11--11--14--14--12--12----------|
D|---------------------------------|-----------------------------------------|
A|---------------------------------|-----------------------------------------|
D|---------------------------------|-----------------------------------------|

e|---------------------------------|-----------------------------------------|
B|---------------------------------|-----------------------------------------|
G|-11--11--16--16--17--17--11--11--|-12--12--16--16--15--15--14--14----------|
D|---------------------------------|-----------------------------------------|
A|---------------------------------|-----------------------------------------|
D|---------------------------------|-----------------------------------------| X2

Not too sure about this next part that follows the solo, first part is something like this but I'll try
get the rest of it in here soon. 
e|---------------------------------------|
B|---------------------------------------|
G|---/19~-----/18~-----16~------15~----~-|
D|---------------------------------------|
A|---------------------------------------|
D|---------------------------------------|

Follow that with the Chorus once again, then the Solo and end on a D (G--19~--|) and there you have it! 
Good song, pretty repetitive so you should get it pretty quick.

************************************

| \  Slide down
| /  Slide up
| x  Dead note
| ~  Vibrato

************************************
Suggest correction
Creating personal tab
Creating personal tab
You can edit any tab online and save it as your Personal.

You can edit, replace or remove any tab part or add personal notes – all changes will be seen only by you.

Personal tabs can be accessed anytime from any device, even offline.
Learn more »
comments
print report bad tab
1 comment total.
0 reply
tshaw52 13 Jun 03, 2015 11:53 AM

Lack of accuracy. Tab incomplete. The tab is not completely finshed. The 2nd solo is not included and there are several mistakes in the Main riff of this tab.

guest
Wanna post a correction for this tab? Suggest correction