Oops, an error
Loading. Please wait.

Dig Down bass

version 1
version 1

Whole song

  • Taken from live videos and transcribed for a non-specialized synth bass.

Interactive

by Muse
745 views 39 this week
1 commentread comment
1 2 3 4 5
1 last vote to show rating
add to favorites
×
Save as Personal and add changes to this tab that will be seen only by you. Learn more ›
×
You can save this tab as Personal to edit and correct it or add notes. All changes will be seen only by you. Learn more »
launch autoscroll
font size
0
reset
guitar tuner
edit
Autoscroll
slow
fast
+/-
esc
set tempo
stop
About this tab version
Taken from live videos and transcribed for a non-specialized synth bass. Was this info helpful? Yes No
Chris uses a special synth bass to play this, and doesn't play the octaves.
If you want to, you can just play the low octave instead.

[Intro]
G|----------12-----12-----12-----|----------12-----12-----12-----|
D|-------------------------------|-------------------------------|
A|-10-10-10-----10-----10-----10-|-10-10-10-----10-----10-----10-|
E|-------------------------------|-------------------------------| (x4)

[Verse]
                                                                   _
G|----------12-----12-----12-----|----------12-----12-----12-----|  |
D|-------------------------------|-------------------------------|  |
A|-10-10-10-----10-----10-----10-|-10-10-10-----10-----10-----10-|  |
E|-------------------------------|-------------------------------|  |
                                                                    |
G|-------10----10----10----|-------10----10----10----|              |
D|-------------------------|-------------------------|               \ (x2)
A|-8-8-8-----8-----8-----8-|-8-8-8-----8-----8-----8-|               /
E|-------------------------|-------------------------|              |
                                                                    |
G|-------------------------|-------------------------|              |
D|-------10----10----10----|-------10----10----10----|              |
A|-------------------------|-------------------------|              |
E|-8-8-8-----8-----8-----8-|-8-8-8-----8-----8-----8-|             _|

G|----------12-----12-----12-----|----------12-----12-----12-----|
D|-------------------------------|-------------------------------|
A|-10-10-10-----10-----10-----10-|-10-10-10-----10-----10-----10-|
E|-------------------------------|-------------------------------| (x2)
                                                                   _
G|----------12-----12-----12-----|----------12-----12-----12-----|  |
D|-------------------------------|-------------------------------|  |
A|-10-10-10-----10-----10-----10-|-10-10-10-----10-----10-----10-|  |
E|-------------------------------|-------------------------------|  |
                                                                    |
G|-------10----10----10----|-------10----10----10----|              |
D|-------------------------|-------------------------|               \ (x2)
A|-8-8-8-----8-----8-----8-|-8-8-8-----8-----8-----8-|               /
E|-------------------------|-------------------------|              |
                                                                    |
G|-------------------------|-------------------------|              |
D|-------10----10----10----|-------10----10----10----|              |
A|-------------------------|-------------------------|              |
E|-8-8-8-----8-----8-----8-|-8-8-8-----8-----8-----8-|             _|

G|----------12-----12-----12-----|----------12-----12-----12-----|
D|-------------------------------|-------------------------------|
A|-10-10-10-----10-----10-----10-|-10-10-10-----10-----10-----10-|
E|-------------------------------|-------------------------------|

[Chorus]
                                                                   _
G|----------12-----12-----12-----|----------12-----12-----12-----|  |
D|-------------------------------|-------------------------------|  |
A|-10-10-10-----10-----10-----10-|-10-10-10-----10-----10-----10-|  |
E|-------------------------------|-------------------------------|  |
                                                                    |
G|-------10----10----10----|-------10----10----10----|              |
D|-------------------------|-------------------------|               \ (x2)
A|-8-8-8-----8-----8-----8-|-8-8-8-----8-----8-----8-|               /
E|-------------------------|-------------------------|              |
                                                                    |
G|-------------------------|-------------------------|              |
D|-------10----10----10----|-------10----10----10----|              |
A|-------------------------|-------------------------|              |
E|-8-8-8-----8-----8-----8-|-8-8-8-----8-----8-----8-|             _|

G|----------12-----12-----12-----|----------12-----12-----12-----|
D|-------------------------------|-------------------------------|
A|-10-10-10-----10-----10-----10-|-10-10-10-----10-----10-----10-|
E|-------------------------------|-------------------------------|

[Verse]
                                                                   _
G|----------12-----12-----12-----|----------12-----12-----12-----|  |
D|-------------------------------|-------------------------------|  |
A|-10-10-10-----10-----10-----10-|-10-10-10-----10-----10-----10-|  |
E|-------------------------------|-------------------------------|  |
                                                                    |
G|-------10----10----10----|-------10----10----10----|              |
D|-------------------------|-------------------------|               \ (x2)
A|-8-8-8-----8-----8-----8-|-8-8-8-----8-----8-----8-|               /
E|-------------------------|-------------------------|              |
                                                                    |
G|-------------------------|-------------------------|              |
D|-------10----10----10----|-------10----10----10----|              |
A|-------------------------|-------------------------|              |
E|-8-8-8-----8-----8-----8-|-8-8-8-----8-----8-----8-|             _|

G|----------12-----12-----12-----|----------12-----12-----12-----|
D|-------------------------------|-------------------------------|
A|-10-10-10-----10-----10-----10-|-10-10-10-----10-----10-----10-|
E|-------------------------------|-------------------------------| (x2)

[Chorus]
                                                                   _
G|----------12-----12-----12-----|----------12-----12-----12-----|  |
D|-------------------------------|-------------------------------|  |
A|-10-10-10-----10-----10-----10-|-10-10-10-----10-----10-----10-|  |
E|-------------------------------|-------------------------------|  |
                                                                    |
G|-------10----10----10----|-------10----10----10----|              |
D|-------------------------|-------------------------|               \ (x2)
A|-8-8-8-----8-----8-----8-|-8-8-8-----8-----8-----8-|               /
E|-------------------------|-------------------------|              |
                                                                    |
G|-------------------------|-------------------------|              |
D|-------10----10----10----|-------10----10----10----|              |
A|-------------------------|-------------------------|              |
E|-8-8-8-----8-----8-----8-|-8-8-8-----8-----8-----8-|             _|

G|----------12-----12-----12-----|----------12-----12-----12-----|
D|-------------------------------|-------------------------------|
A|-10-10-10-----10-----10-----10-|-10-10-10-----10-----10-----10-|
E|-------------------------------|-------------------------------|

[Guitar Solo]
G|-------------------------------|-------------------------------|
D|----------12-----12-----12-----|----------12-----12-----12-----|
A|-------------------------------|-------------------------------|
E|-10-10-10-----10-----10-----10-|-10-10-10-----10-----10-----10-|

G|-------------------------------|-------------------------------|
D|----------14-----14-----14-----|----------14-----14-----14-----|
A|-------------------------------|-------------------------------|
E|-12-12-12-----12-----12-----12-|-12-12-12-----12-----12-----12-|

G|-------------------------|-------------------------|
D|-------10----10----10----|-------10----10----10----|
A|-------------------------|-------------------------|
E|-8-8-8-----8-----8-----8-|-8-8-8-----8-----8-----8-|

G|--------------------------------|------------------------------------|
D|----------12-----12-----12------|------------------------------------|
A|--------------------------------|-17-17-17-17-17-17-17-17-17-17\-----|
E|-10-10-10-----10-----10-----10/-|------------------------------------|

[Chorus]
                                                                   _
G|----------12-----12-----12-----|----------12-----12-----12-----|  |
D|-------------------------------|-------------------------------|  |
A|-10-10-10-----10-----10-----10-|-10-10-10-----10-----10-----10-|  |
E|-------------------------------|-------------------------------|  |
                                                                    |
G|-------10----10----10----|-------10----10----10----|              |
D|-------------------------|-------------------------|               \ (x4)
A|-8-8-8-----8-----8-----8-|-8-8-8-----8-----8-----8-|               /
E|-------------------------|-------------------------|              |
                                                                    |
G|-------------------------|-------------------------|              |
D|-------10----10----10----|-------10----10----10----|              |
A|-------------------------|-------------------------|              |
E|-8-8-8-----8-----8-----8-|-8-8-8-----8-----8-----8-|             _|

[Outro]
G|----------12-----12-----12-----|----------12-----12-----12-----|
D|-------------------------------|-------------------------------|
A|-10-10-10-----10-----10-----10-|-10-10-10-----10-----10-----10-|
E|-------------------------------|-------------------------------| (x2)


************************************

| \   Slide down
| /   Slide up

************************************

            
            
Suggest correction
Creating personal tab
Creating personal tab
You can edit any tab online and save it as your Personal.

You can edit, replace or remove any tab part or add personal notes – all changes will be seen only by you.

Personal tabs can be accessed anytime from any device, even offline.
Learn more »
Give kudos to tab author, rate the tab!
1 2 3 4 5
comments
print report bad tab
1 comment total.
0 reply
bjwelsh96 142 Jun 27, 2017 08:53 AM

Great tab, cheers!

guest
You may want to rate the tab now too:
select rating
Wanna post a correction for this tab? Suggest correction