Oops, an error
Loading. Please wait.

Dracula Mountain Bass Tab

version 1
version 1

Whole song

Interactive

by Muse
1,896 views 1 this week
no commentswrite comment
1 2 3 4 5
please rate
add to favorites
launch autoscroll
font size
0
reset
guitar tuner
Autoscroll
slow
fast
+/-
esc
set tempo
stop
Help us to improve Ultimate-Guitar.com Take our survey!
×
Author
Difficulty
Tuning
intermediate
D A D G B E
Chris and Dom (From Muse) - Dracula Mountain

http://www.youtube.com/watch?v=zGguNEgveUAThe video, I tabbed it from this vid. So I 
hear everything clear.
It`s pretty messy and noisy so don`t expect I have EVERYthing without a note missed, if 
want to cover it then give it your twist.

Tuning: Dropped D, Effect: Distortion/Fuzz

Intro, till 00:19, some noise, heavy vibrato.

Main riff 00:19 (And repeated later)
G|-----------9-10-10-/14-14--|----------9-10-10-10-10-|
D|--12-12-12-----------------|-12-12-12---------------|
A|---------------------------|------------------------|
D|---------------------------|------------------------|

|-----------9-10-10-/14-14--|---------------------------|
|--12-12-12-----------------|--12-12-12-15-13-13-13-13--|
|---------------------------|---------------------------|
|---------------------------|---------------------------|

|-----------9-10-10-/14-14--|-----------9-10-10-10-10--|
|--12-12-12-----------------|--12-12-12----------------|
|---------------------------|--------------------------|
|---------------------------|--------------------------|

|-----------9-10-10-14-14--|--14-12-10-----------------|
|--12-12-12----------------|-----------14-12-12-12-12--|
|--------------------------|---------------------------|
|--------------------------|---------------------------|

Faster, the low riff at around 00:30, repeated around 4 times
|-------------------|---------------------|
|-------------------|--5-----6---6--7--7--|
|--5---5-----5------|------5--------------|
|----------0-----0--|---------------------|

00:39, with the high notes between. Now it gets pretty messy. I can`t hear all notes 
so this is less accurate.

Repeat every section (Most of the time two bars) a few times
|--7-------------|------------------------|
|----------------|--5-----6---6--7--7-----|
|---------5------|------5---------------5-|
|------0------0--|------------------------|

|--7--7------------|-----------------------|
|------------------|--5-----6---6--7--7----|
|-----------5------|------5--------------5-|
|--------0------0--|-----------------------|

From Dm to Em
|--9---------------|----------------------|
|------------------|--7------8---8--9--9--|
|-----------7------|------7---------------|
|--------0------0--|----------------------|

And
|--9--9--------------|----------------------|
|--------------------|--7------8---8--9--9--|
|-------------7------|------7---------------|
|----------0------0--|----------------------|

1:06, slower
A                       B
|----------------------|----------------------|
|------7---------7-----|------7---------7-----|
|--5------5--5------5--|--5------5--5------5--|
|----------------------|----------------------|

C                       D                      E
|----------------------|----------------------|------------/6--6--6--6--|
|------7---------7-----|------7---------7-----|------7------------------|
|--5------5--5------5--|--5------5--5------5--|--5------5---------------|
|----------------------|----------------------|-------------------------|

You can see that bars A, B, C, and D are exactly the same.
First play A-B-C-D-E x2 (Or as many times as you want) then B-C-D-E. So it gets shorter, 
last times only bar E
Listen to the jam you`ll hear it.

Then the main riff, (The beginning riff) it maybe has some variation this time.

After the main riff play it same an octave lower:

This is the riff on octave lower and an alternative version. Chris
Slides high on the neck in some songs (MotP, Glorious)
|----------------------------|---------------------------|
|----------------------------|---------------------------|
|----------------------------|---------------------------|
|--12-12-12-14-15-15-/19-19--|--12-12-12-14-15-15-15-15--|

|----------------------------|---------------------------|
|----------------------------|---------------------------|
|----------------------------|---------------------------|
|--12-12-12-14-15-15-/19-19--|--12-12-12-15-13-13-13-13--|

|----------------------------|---------------------------|
|----------------------------|---------------------------|
|----------------------------|---------------------------|
|--12-12-12-14-15-15-/19-19--|--12-12-12-14-15-15-15-15--|


|----------------------------|---------------------------|
|----------------------------|---------------------------|
|----------------------------|---------------------------|
|--12-12-12-14-15-15-/19-19--|--19-17-15-14-12-12-12-12--|
Suggest correction
Give kudos to tab author, rate the tab!
1 2 3 4 5
comments
print report bad tab
guest
You may want to rate the tab now too:
select rating
Please do not post tabs as comments. Select "correction" instead!