Oops, an error
Loading. Please wait.

Easily Tab

version 1
version 1

Solo

Whole song

Interactive

by Muse
4,567 views 6 this week
no commentswrite comment
1 2 3 4 5
x 8
add to favorites
launch autoscroll
font size
0
reset
how to read this tab
guitar tuner
Autoscroll
slow
fast
+/-
esc
set tempo
stop
Help us to improve Ultimate-Guitar.com Take our survey!
×
Author
Difficulty
novice
Solo:
e|---------------------------------------------------------|
B|--x------------------------------------------------------|
G|--x------------------------------------------------------|
D|--x------------------------------------------------------|
A|----------12--14--15---17--------17br--15----------------|
E|----------------------------15---------------------------|

e|----------------------------------------------------|
B|----------------------------------------------------|
G|----------------------------------------------------|
D|----------------------------------------------------|
A|--------12--15----14--------------15br--14----------|
E|---------------------------12-----------------------|

e|-----------------------------------------------|
B|-----------------------------------------------|
G|-----------------------------------------------|
D|----------------------------------15br--14-----|
A|----------12--14--15----15---------------------|
E|-----------------------------12----------------|

e|---------------------------------------------|
B|------------------------------5---5---5------|
G|------------------------------7b--7b--7b-----|
D|-----------12--------------------------------|
A|-----------------15--------------------------|
E|---------------------------------------------|

e|--12-----------------12\10-10---------------10/13-13-------|
B|------13----------------------12---------------------13----|
G|----------14----------------------12--------------------14-|
D|-----------------------------------------------------------|
A|-----------------------------------------------------------|
E|-----------------------------------------------------------|

e|---13\12-12------------12/17-17-------------17\15-15-------|
B|------------12------------------18-------------------17----|
G|---------------13------------------19-------------------17-|
D|-----------------------------------------------------------|
A|-----------------------------------------------------------|
E|-----------------------------------------------------------|

e|-15/20-20-----------------19br--16---13--------12----------|
B|----------22-----------------------------------------------|
G|-------------22--------------------------------------------|
D|-----------------------------------------------------------|
A|-----------------------------------------------------------|
E|-----------------------------------------------------------|

Vocal starts again
All notes are now Tremolo picked
e|--10---------------8----10--8--------------7--8----7---------------7--|
B|----------------------------------------------------------------------|
G|----------------------------------------------------------------------|
D|----------------------------------------------------------------------|
A|----------------------------------------------------------------------|
E|----------------------------------------------------------------------|

e|--10--------8-----------7------------------12--------10-8-10--8-----8-10-|
B|-------------------------------------------------------------------------|
G|-------------------------------------------------------------------------|
D|-------------------------------------------------------------------------|
A|-------------------------------------------------------------------------|
E|-------------------------------------------------------------------------|

e|--8--7-------7--------7--8----5---------5--7----5----8--------7---------|
B|------------------------------------------------------------------------|
G|------------------------------------------------------------------------|
D|------------------------------------------------------------------------|
A|------------------------------------------------------------------------|
E|------------------------------------------------------------------------|

e|--12------10-12-15----------10--8-------7--------7--8--|
B|-------------------------------------------------------|
G|-------------------------------------------------------|
D|-------------------------------------------------------|
A|-------------------------------------------------------|
E|-------------------------------------------------------|

e|--10----------------8--10---12--------7-----|
B|--------------------------------------------|
G|--------------------------------------------|
D|--------------------------------------------|
A|--------------------------------------------|
E|--------------------------------------------|
Suggest correction
comments
print report bad tab
guest
You may want to rate the tab now too:
select rating
Wanna post a correction for this tab? Suggest correction