Oops, an error
Loading. Please wait.

Easily Bass Tab

version 2
version 2

Whole song

Interactive

by Muse
1,752 views 3 this week
no commentswrite comment
1 2 3 4 5
please rate
add to favorites
launch autoscroll
font size
0
reset
guitar tuner
Autoscroll
slow
fast
+/-
esc
set tempo
stop
Help us to improve Ultimate-Guitar.com Take our survey!
×
-------------------------------------------------------------------------------
			     Easily - Muse
-------------------------------------------------------------------------------

Tabbed By : MikeyW
e-mail: theultimatevictory@hotmail.co.uk

Tuning: Standard


G|---------------------------------------------------------------------------|
D|--10----------------10------12---------------12----------------------------|
A|-----1212--12121212----12------1010--10101010----10------------------------|
E|---------------------------------------------------------------------------|

G|---------------------------------------------------------------------------|
D|--12----------------12------10----------------10---------------------------|
A|---------------------------------------------------------------------------|
E|-----1313--13131313----13------1212--12121212----12------------------------|

G|---------------------------------------------------------------------------|
D|--9---------------9------7----------7--------------------------------------|
A|---------------------------------------------------------------------------|
E|----1010-10101010---10-----88--8888---8------------------------------------|

G|-------------10------------------------------------------------------------|
D|--10-------------------14--(11 not 1)--14----------------------------------|
A|-----88-8888----12--------1111-11111111------------------------------------|
E|---------------------------------------------------------------------------|


Pre=chorus
G|---------------------------------------------------------------------------|
D|--10--------------------10-------10----------------------------------------|
A|-------1212--12121212------12-------1212--12121212-12----------------------|
E|---------------------------------------------------------------------------|

Chorus
G|---------------------------------------------------------------------------|
D|---7-----7----5-----5----5-------------------------------------------------|
A|---------------------------------------------------------------------------|
E|-----33----5----33----3----33-x3x-33---------------------------------------|


G|---------------------------------------------------------------------------|
D|---------------------------------------------------------------------------|
A|--8-55-8-5-7----7---7-------------/7---------------------------------------|
E|-------------55---5---00-x0x-00--------------------------------------------|

G|---------------------------------------------------------------------------|
D|---------------------------------------------------------------------------|
A|---------------------------------------------------------------------------|
E|---------------------------------------------------------------------------|


Intro x1
Verse1 x2
Pre chorus x1
Chorus x2
Intro x2
Verse2 x1
Pre chorus x1
Chorus x2
Guitar solo (verse) x2
Pre chorus x1
Chorus x4

| /  slide up
| \  slide down
| h  hammer-on
| p  pull-off
| ~  vibrato
| +  harmonic
| x  Mute note
===============================================================================
Suggest correction
Give kudos to tab author, rate the tab!
1 2 3 4 5
comments
print report bad tab
guest
You may want to rate the tab now too:
select rating
Wanna post a correction for this tab? Suggest correction