Oops, an error
Loading. Please wait.

Execution Commentary Bass Tab

version 1
version 1

Whole song

Interactive

by Muse
2,449 views 3 this week
5 commentsread comments
1 2 3 4 5
excellent!
x 3
add to favorites
launch autoscroll
font size
0
reset
guitar tuner
Autoscroll
slow
fast
+/-
esc
set tempo
stop
Help us to improve Ultimate-Guitar.com Take our survey!
×
Contributor
Difficulty
Tuning
novice
D A D G B E
Tabbed By : Busby_bass
e-mail: chew_your_pretzel@hotmail.com

Very easy little known muse b side, great for first time bassists, also fun to play.	

Tuning:D A D G
Intro
G|---------------------------------------------------------------------------|
D|---------------------------------------------------------------------------|
A|------------------------0--------------------------------------------------|
D|-3-2-3-2-3--2-3-2-3-2-3---3--7-7-7-----------------------------------------|

Part 1
G|---------------------------------------------------------------------------|
D|---------------------------------------------------------------------------|
A|-0-2-0-3-00-5-0-6-777----16 times-----------------------------------------|
D|---------------------------------------------------------------------------|

Part 2
G|---------------------------------------------------------------------------|
D|---------------------------------------------------------------------------|
A|-0-3-0-3-0-5-3-------------------------------------------------------------|
D|---------------------------------------------------------------------------|

G|---------------------------------------------------------------------------|
D|---------------------------------------------------------------------------|
A|-0-3-0-3-0-----------------------------------------------------------------|
D|---------------------------------------------------------------------------|

G|---------------------------------------------------------------------------|
D|---------------------------------------------------------------------------|
A|-0-3-0-3-0-5-3-------------------------------------------------------------|
D|---------------------------------------------------------------------------|

G|---------------------------------------------------------------------------|
D|---------------------------------------------------------------------------|
A|-0-3-0-3-0-----------------------------------------------------------------|
D|---------------------------------------------------------------------------|

G|---------------------------------------------------------------------------|
D|---------------------------------------------------------------------------|
A|-0-3-0-3-0-543-0-3-0-3-0---------------------------------------------------|
D|---------------------------------------------------------------------------|

Repeat part 1 and then part 2 .

| /  slide up
| \  slide down
| h  hammer-on
| p  pull-off
| ~  vibrato
| +  harmonic
| x  Mute note
comments
We did not receive enough feedback on this tab! Please rate:
print report bad tab
1 2 3 4 5
5 comments total. Showing first comments.
0 reply
tumples 147 wrote on March 22 2007, 09:40 pm

I actually really like this riff, simple but effective.

0 reply
CasanovaBass 52 wrote on March 19 2008, 03:31 pm

G|---------------------------------------------------------------------------|
D|---------------------------------------------------------------------------|
A|------------------------0----0-0-0-----------------------------------------|
E|-1-0-1-0-1--0-1-0-1-0-1---1------------------------------------------------|

0 reply
CasanovaBass 52 wrote on March 19 2008, 03:31 pm

G|---------------------------------------------------------------------------|
D|---------------------------------------------------------------------------|
A|------------------------0----0-0-0-----------------------------------------|
E|-1-0-1-0-1--0-1-0-1-0-1---1------------------------------------------------|

I want to post or [tab]
guest
You may want to rate the tab now too:
select rating
Please do not post tabs as comments. Select "correction" instead!