Oops, an error
Loading. Please wait.

Exo-Politics Bass Tab

version 2
version 2

Whole song

by Muse
4,757 views 6 this week
no commentswrite comment
1 2 3 4 5
accurate
x 4
add to favorites
launch autoscroll
font size
0
reset
guitar tuner
Autoscroll
slow
fast
+/-
esc
set tempo
stop
Help us to improve Ultimate-Guitar.com Take our survey!
×
Difficulty
intermediate
Exo-Politics

Standard Tuning

-------------------------------|
-------------------------------|  X3
-5-5-5-3-5-7-8-8-7s8s7---------|
------------------------8------|

-----------------------------------------------|
-----------------------------------------------|
---------------------------------------5-3s5s3-|
--6-6-6-5-6-8-1-1-1-0-1-3-5-5-5-3-5-8----------|

Chorus "When the zetas fill the skies.."

----7----7----7----7-----5----5----5----5----10----10-----15-------15-----|
--------------------------------------------------------------------------|
--55-5-55-5-55-5-55-5--33-3-33-3-33-3-33-3-88--8-88--8-1313-13-1313-13----|
--------------------------------------------------------------------------|

-----------------------------|
-----------------------------|
--5---3---8---5-3-1-0-1-3-5--|
-----------------------------|

----7----7----7----7-----5----5----5----5----10----10-----15-------15-----|
--------------------------------------------------------------------------|
--55-5-55-5-55-5-55-5--33-3-33-3-33-3-33-3-88--8-88--8-1313-13-1313-13----|
--------------------------------------------------------------------------|

-----------------------------|
-----------------------------|
--5---3---8---5-3-1-0-1-3-5--|
-----------------------------|

"And I've waited patiently"

---------------------------------------------------|
---------------------------------------------------|
---------------------------------------5-5-5-5-5-5-|
--6-6-6-6-6-6-1-1-1-0-1-3-5-5-5-5-5-8--------------|

solo
-------------------------------|
-------------------------------|
-5-5-5-3-5-7-8-8-7s8s7---------|
------------------------8------|

-----------------------------------------------|
-----------------------------------------------|
---------------------------------------5-3s5s3-|
--6-6-6-5-6-8-1-1-1-0-1-3-5-5-5-3-5-8----------|

Verse 2

-------------------------------|
-------------------------------|  X4
-5-5-5-3-5-7-8-8-7s8s7---------|
------------------------8------|

-----------------------------------------------|
-----------------------------------------------|
---------------------------------------5-3s5s3-|
--6-6-6-5-6-8-1-1-1-0-1-3-5-5-5-3-5-8----------|

Chorus 2 "When the zetas fill the skies.."

----7----7----7----7-----5----5----5----5----10----10-----15-------15-----|
--------------------------------------------------------------------------|
--55-5-55-5-55-5-55-5--33-3-33-3-33-3-33-3-88--8-88--8-1313-13-1313-13----|
--------------------------------------------------------------------------|

-----------------------------|
-----------------------------|
--5---3---8---5-3-1-0-1-3-5--|
-----------------------------|

----7----7----7----7-----5----5----5----5----10----10-----15-------15-----|
--------------------------------------------------------------------------|
--55-5-55-5-55-5-55-5--33-3-33-3-33-3-33-3-88--8-88--8-1313-13-1313-13----|
--------------------------------------------------------------------------|

-----------------------------|
-----------------------------|
--5---3---8---5-3-1-0-1-3-5--|
-----------------------------|

"And I've waited patiently"

---------------------------------------------------|
---------------------------------------------------|
---------------------------------------5-5-5-5-5-5-|
--6-6-6-6-6-6-1-1-1-0-1-3-5-5-5-5-5-8--------------|

Outro

-------------------------------|
-------------------------------|
-5-5-5-3-5-7-8-8-7s8s7---------|
------------------------8------|

--------------------------------|
--------------------------------|
-5-5-5-3-5-7-8-8-7s8s7-----5----|
------------------------8-------|


And there ya go. This is my first tab so please rate it. Muse is an awsome band they are 
musical icons. I envy them. So enjoy this tab.
comments
print report bad tab
I want to post or [tab]
guest
You may want to rate the tab now too:
select rating
Please do not post tabs as comments. Select "correction" instead!