Oops, an error
Loading. Please wait.

Exo-Politics Bass Tab

version 4
version 4
by Muse
2,958 views 15 this week
no commentswrite comment
1 2 3 4 5
accurate
x 5
add to favorites
launch autoscroll
font size
0
reset
guitar tuner
Tab Pro tools
  • play this tab
  • loop segment
  • change instrument
  • show fretboard
  • metronome
×
Best way to learn
"Exo-politics"
Autoscroll
slow
fast
+/-
esc
set tempo
stop
Contributor
I haven't found any perfect ones yet, hope this is good. plz rate

Verse 1 (0:35)
G|---------------------------------------------------------|
D|---------------------------------------------------------|
A|-5--5--5-3-5-7-8--8--7h8-7-3/5--5--5-3-5-7-8--8--7h8-7-3-|
E|---------------------------------------------------------|

G|---------------------------------------------------------|
D|---------------------------------------------------------|
A|-----------------------------------------3-5--5--3-5-3-3-|
E|-6--6--6-5-6-8-1--1--1-0-1-3-5--5--5-3-5-----------------|

G|-------------------------------------------------------------|
D|-------------------------------------------------------------|
A|--------------------------------------------------------3-5\-|
E|-6--6--6-5-6-8-1--1--1-0-1-3-5--5--5-3-5-6-5--5-6-5-3-5------|

Pause

Chorus

G|-------------------------------------------------------------| 
D|-------------------------------------------------------------| 
A|-5-5-x-5--5-x-5-5-5-x-5--5-x-5-3-3-x-3--3-x-3-3-3-x-3--3-x-3-| 
E|-------------------------------------------------------------|  
                                                                   
G|-------------------------------------------------------------|  
D|-3-3-x-3--3-x-3----------------------------3-----------------| 
A|-------------------------------5--5--5-3-5---5--5-4-------4--|  
E|----------------6-6-x-6--6-x-6----------------------6-5-6----| 

G|-------------------------------------------------------------| 
D|-------------------------------------------------------------| 
A|-5-5-x-5--5-x-5-5-5-x-5--5-x-5-3-3-x-3--3-x-3-3-3-x-3--3-x-3-| 
E|-------------------------------------------------------------|  
                                                                   
G|-------------------------------------------------------------|  
D|-3-3-x-3--3-x-3----------------------------3-----------------| 
A|-------------------------------5--5--5-3-5---5--5-4-5-4-5-4--|  
E|----------------6-6-x-6--6-x-6-------------------------------|

G|-----------------------------------------------------------------|
D|-----------------------------------------------------------------|
A|-----------------------------------------------3-5-5-5-5-3-5-3-3-|
E|-6-6-6-6-6-5-6-8-1-1-1-1-1-0-1-3-5-5-5-5-5-3-5-------------------|

G|-----------------------------------------------------------------|
D|-----------------------------------------------------------------|
A|-----------------------------------------------------------------|
E|-6-6-6-6-6-5-6-8-1-1-1-1-1-0-1-3-5-5-5-5-5-3-5-6-5-3-5-6-5-3-5-6-|

Guitar solo

G|---------------------------------------------------------|
D|---------------------------------------------------------|
A|-5--5--5-3-5-7-8--8--7h8-7-3/5--5--5-3-5-7-8--8--7h8-7-3-|
E|---------------------------------------------------------|

G|---------------------------------------------------------|
D|---------------------------------------------------------|
A|-----------------------------------------3-5--5--3-5-3-3-|
E|-6--6--6-5-6-8-1--1--1-0-1-3-5--5--5-3-5-----------------|

G|----------------------------------------------------------|
D|----------------------------------------------------------|
A|--------------------------------------------------------3-|
E|-6--6--6-5-6-8-1--1--1-0-1-3-5--5--5-3-5-6-5--5-6-5-3-5---|

Verse 1

Pause

Chorus 2

G|-------------------------------------------------------------| 
D|-------------------------------------------------------------| 
A|-5-5-x-5--5-x-5-5-5-x-5--5-x-5-3-3-x-3--3-x-3-3-3-x-3--3-x-3-| 
E|-------------------------------------------------------------|  
                                                                   
G|-------------------------------------------------------------|  
D|-3-3-x-3--3-x-3----------------------------3-----------------| 
A|-------------------------------5--5--5-3-5---5--5-4-------4--|  
E|----------------6-6-x-6--6-x-6----------------------6-5-6----| 

G|-------------------------------------------------------------| 
D|-------------------------------------------------------------| 
A|-5-5-x-5--5-x-5-5-5-x-5--5-x-5-3-3-x-3--3-x-3-3-3-x-3--3-x-3-| 
E|-------------------------------------------------------------|  
                                                                   
G|-------------------------------------------------------------|  
D|-3-3-x-3--3-x-3----------------------------3-----------------| 
A|-------------------------------5--5--5-3-5---5--5-4-5-4-5-4--|  
E|----------------6-6-x-6--6-x-6-------------------------------|

G|-----------------------------------------------------------------|
D|-----------------------------------------------------------------|
A|-----------------------------------------------3-5-5-5-5-3-5-3-3-|
E|-6-6-6-6-6-5-6-8-1-1-1-1-1-0-1-3-5-5-5-5-5-3-5-------------------|

G|-----------------------------------------------------------------|
D|-----------------------------------------------------------------|
A|-----------------------------------------------------------------|
E|-6-6-6-6-6-5-6-8-1-1-1-1-1-0-1-3-5-5-5-5-5-3-5-6-5-3-5-6-5-3-5-5-|

G|-----------------------------------------------------------------|
D|-----------------------------------------------------------------|
A|-----------------------------------------------3-5-5-5-5-3-5-3-3-|
E|-6-6-6-6-6-5-6-8-1-1-1-1-1-0-1-3-5-5-5-5-5-3-5-------------------|

G|-----------------------------------------------------------------|
D|-----------------------------------------------------------------|
A|---------------------------------------------------------------3-|
E|-6-6-6-6-6-5-6-8-1-1-1-1-1-0-1-3-5-5-5-5-5-3-5-6-5-3-5-6-5-3-5---|

End

G|-----------------------------------------------------------|
D|-----------------------------------------------------------|
A|-5--5--5-3-5-7-8--8--7h8-7-3/5--5--5-3-5-7-8--8--7h8-7-3-5-|
E|-----------------------------------------------------------|
comments
print report bad tab
I want to post or [tab]
guest
You may want to rate the tab now too:
select rating
Please do not post tabs as comments. Select "correction" instead!