Oops, an error
Loading. Please wait.
We have an official Exo-Politics tab made by UG professional guitarists. Check out the tab »
×
by Muse
6,256 views 6 this week
2 commentsread comments
1 2 3 4 5
x 3
add to favorites
×
Save as Personal and add changes to this tab that will be seen only by you. Learn more ›
×
You can save this tab as Personal to edit and correct it or add notes. All changes will be seen only by you. Learn more »
launch autoscroll
font size
0
reset
how to read this tab
guitar tuner
backing track
0:00
0:00
edit
Autoscroll
slow
fast
+/-
esc
set tempo
stop
Author
Difficulty
:) Hello, this is my first tab and I'm just thirteen so, show mercy if I've made any mistakes. (:

Band: Muse
Album: Black Holes And Revelations
Song: Exo-Politics
Author: Matthew Bellamy
Tabbed by: Ólafur Kjaran Árnason (thats an Icelandic name :P)


Play this four times:
e|-------------------------|
B|-------------------------|
G|-------------------------|
D|-0-0-0---0-2-3-3-2-3-2---|
A|-------3---------------3-|
E|-------------------------|

Then it goes like this:
e|--------------------------------------------------|
B|--------------------------------------------------|
G|--------------------------------------------------|
D|-------------------------------------0-0----(0)---|
A|-1-1-1-0-1-3-----------------------3-----(3)---(3)|
E|-------------1-1-1-0-1-3-5-5-5-3-5----------------|

e|---------------------------------------------------|
B|---------------------------------------------------|
G|---------------------------------------------------|
D|---------------------------------------------------|
A|-1-1-1-0-1-3---------------------------------------|
E|-------------1-1-1-0-1-3-5-5-5-3-5-6-5-5-6-5-3-1-0-|

Again:
e|-------------------------|
B|-------------------------|
G|-------------------------|
D|-0-0-0---0-2-3-3-2-3-2---|
A|-------3---------------3-|
E|-------------------------|

e|-------------------------|
B|-------------------------|
G|-------------------------|
D|-0-0-0---0-2-3-3-2-3-2---|
A|-------3---------------3-|
E|-------------------------|

e|--------------------------------------------------|
B|--------------------------------------------------|
G|--------------------------------------------------|
D|-------------------------------------0-0----(0)---|
A|-1-1-1-0-1-3-----------------------3-----(3)---(3)|
E|-------------1-1-1-0-1-3-5-5-5-3-5----------------|

e|-----------------------------------------------------|
B|-----------------------------------------------------|
G|-----------------------------------------------------|
D|---------------------------------------------------0-|
A|-1-1-1-0-1-3-----------------------------------0-3---|
E|-------------1-1-1-0-1-3-5-5-5-3-5-6-5-5-6-5-3-------|

Ok then, now it's the chorus, you should do it with power chords:

dm                      C
When the Zetas fill the skies
F        Bb              dm
Will our leaders tell us why

e|---------------------------|
B|---------------------------|
G|---------------------------|
D|-0-0-0---0-3-0-0-----------|
A|-------3---------4-1-0-3-4-|
E|---------------------------|

dm               C
Fully loaded satellites
F            Bb              dm
We can´t get nothing but our minds

e|---------------------------|
B|---------------------------|
G|---------------------------|
D|-0-0-0---0-3-0-0---0-------|
A|-------3---------3---3-----|
E|---------------------------|

         Bb  F  A      dm
And I´ve waited patiently
      Bb F A       dm
And I wait for the sign

Guitar Solo (I'll do it later)


Here are the whole lyrics for the song:

Open skies over me
I am waiting patiently
I wait for a sign

As conspiracies unwind
Will you slam shut
Or free your mind
Or stay hypnotised

When the Zetas fill the skies
Will our leaders tell us why
Fully loaded satellites
We can´t get nothing but our minds

And I´ve waited patiently
And I wait for the sign

Carried through the centuries
Secrets locked up
And loaded on my back
Well it weights me down

When the Zetas fill the skies
It´s just our leaders in disguise
Fully loaded satellites
We can´t get nothing but our minds

I´m waiting patiently
And I´ll wait for the sign, yeah
And I´m waiting patiently
And I´ll wait for the sign


You should nearly know how to play the whole song now! :D

            
            
Suggest correction
Creating personal tab
Creating personal tab
You can edit any tab online and save it as your Personal.

You can edit, replace or remove any tab part or add personal notes – all changes will be seen only by you.

Personal tabs can be accessed anytime from any device, even offline.
Learn more »
Give kudos to tab author, rate the tab!
1 2 3 4 5
comments
print report bad tab
2 comments total.
0 reply
skuldugery 20 Jun 04, 2009 08:53 AM

The first bar is meant to be played 4 times a part from that it sounds completley right.
Awesome tab!!!! :D

0 reply
skuldugery 20 Jul 19, 2009 06:22 AM

^^^^ !!!
Oh... dead sorry. I just had another look and it des actually say 4 times (oops). I love this tab anyway - I know it off by heart and am ALWAYS playing it. (Sorry again.)
:)

guest
You may want to rate the tab now too:
select rating
Wanna post a correction for this tab? Suggest correction