Oops, an error
Loading. Please wait.

Exo-Politics Tab

version 7
version 7
by Muse
10,891 views 27 this week
no commentswrite comment
1 2 3 4 5
x 5
add to favorites
launch autoscroll
font size
0
reset
how to read this tab
guitar tuner
Autoscroll
slow
fast
+/-
esc
set tempo
stop
Help us to improve Ultimate-Guitar.com Take our survey!
×
Author
-------------------------------------------------------------------------------
                             Exo-Politics - Muse
-------------------------------------------------------------------------------
Tabbed by: Michael (Music&Science)
Email: monkeymik@hotmail.com

Tuning: Standard

I have only tabbed for one guitar here, although the second guitar is heard in 
places. It doesn't matter too much though :) 

************************************

| /   slide up
| \   slide down
| x   Mute note
| b   Bend

************************************



Intro:

e|---------------------------------------------------------------------------|
B|---------------------------------------------------------------------------|
G|--xxx----------------------------------------------------------------------|
D|--xxx-----------------2--3--3--2b----------------------2--3--3--2b---------|
A|--xxx--5--5--5--3--5---------------3----5--5--5--3--5---------------3------|
E|---------------------------------------------------------------------------|


Verse:
e|---------------------------------------------------------------------------|
B|---------------------------------------------------------------------------|
G|---------------------------------------------------------------------------|
D|-----------------2--3--3--2b----------------------2--3--3--2b--------------|
A|--5--5--5--3--5---------------3----5--5--5--3--5---------------3-----------|
E|---------------------------------------------------------------------------|

e|---------------------------------------------------------------------------|
B|---------------------------------------------------------------------------|
G|---------------------------------------------------------------------------|
D|---------------------------------------------------------------------------|
A|--1--1--1--0--1--3-------------------------------------3--5--5--3--5--3----|
E|--------------------1--1--1--0--1--3----5--5--5--3--5----------------------|

e|---------------------------------------------------------------------------|
B|---------------------------------------------------------------------------|
G|---------------------------------------------------------------------------|
D|---------------------------------------------------------------------------|
A|--1--1--1--0--1--3---------------------------------------------------------|
E|--------------------1--1--1--0--1--3----5--5--5--3--5--6--5----5--6--5--3--|

e|---------------------------------------------------------------------------|
B|---------------------------------------------------------------------------|
G|---------------------------------------------------------------------------|
D|---------------------------------------------------------------------------|
A|-----3---------------------------------------------------------------------|
E|--5------------------------------------------------------------------------|

Verse 2: Repeat the verse once but hit an extra (5) on the A string right before the pre-chorus

Pre-Chorus:

e|---------------------------------------------------------------------------|
B|---------------------------------------------------------------------------|
G|---x-x-x-x-x-x----x-x-x-x-x-x-x--------------------------------------------|
D|---x-x-x-x-x-x----x-x-x-x-x-x-x--------------------------------------------|
A|---x-x-x-x-x-x----x-x-x-x-x-x-x--------------------------------------------|
E|---------------------------------------------------------------------------|

Chorus: in the gap between the 4 chords placed together, you mute the strings 
before hitting the next one (if that makes sense):

e|---------------------------------------------------------------------------|
B|--6-6-6-6----6----6----6-6-6-6----6----6-----------------------------------|
G|--7-7-7-7----7----7----7-7-7-7----7----7-----------------------------------|
D|--7-7-7-7----7----7----7-7-7-7----7----7-----------------------------------|
A|--5-5-5-5----5----5----5-5-5-5----5----5-----------------------------------|
E|---------------------------------------------------------------------------|

e|---------------------------------------------------------------------------|
B|--5-5-5-5----5----5----5-5-5-5----5----5-----------------------------------|
G|--5-5-5-5----5----5----5-5-5-5----5----5-----------------------------------|
D|--5-5-5-5----5----5----5-5-5-5----5----5-----------------------------------|
A|--3-3-3-3----3----3----3-3-3-3----3----3-----------------------------------|
E|---------------------------------------------------------------------------|

e|-----------------------------6-6-6-6----6----6-----------------------------|
B|--10-10-10-10----10----10----6-6-6-6----6----6-----------------------------|
G|--10-10-10-10----10----10----7-7-7-7----7----7-----------------------------|
D|--10-10-10-10----10----10----8-8-8-8----8----8-----------------------------|
A|--8--8--8--8-----8-----8-----8-8-8-8----8----8-----------------------------|
E|-----------------------------6-6-6-6----6----6-----------------------------|

e|---------------------------------------------------------------------------|
B|---------------------------------------------------------------------------|
G|---------------------------------------------------------------------------|
D|-----------------3---------------------------------------------------------|
A|--5--5--5--3--5-----5--5--4-----------4------------------------------------|
E|-----------------------------6--5--6---------------------------------------|

e|---------------------------------------------------------------------------|
B|--6-6-6-6----6----6----6-6-6-6----6----6-----------------------------------|
G|--7-7-7-7----7----7----7-7-7-7----7----7-----------------------------------|
D|--7-7-7-7----7----7----7-7-7-7----7----7-----------------------------------|
A|--5-5-5-5----5----5----5-5-5-5----5----5-----------------------------------|
E|---------------------------------------------------------------------------|

e|---------------------------------------------------------------------------|
B|--5-5-5-5----5----5----5-5-5-5----5----5-----------------------------------|
G|--5-5-5-5----5----5----5-5-5-5----5----5-----------------------------------|
D|--5-5-5-5----5----5----5-5-5-5----5----5-----------------------------------|
A|--3-3-3-3----3----3----3-3-3-3----3----3-----------------------------------|
E|---------------------------------------------------------------------------|

e|-----------------------------6-6-6-6----6----6-----------------------------|
B|--10-10-10-10----10----10----6-6-6-6----6----6-----------------------------|
G|--10-10-10-10----10----10----7-7-7-7----7----7-----------------------------|
D|--10-10-10-10----10----10----8-8-8-8----8----8-----------------------------|
A|--8--8--8--8-----8-----8-----8-8-8-8----8----8-----------------------------|
E|-----------------------------6-6-6-6----6----6-----------------------------|


e|---------------------------------------------------------------------------|
B|---------------------------------------------------------------------------|
G|---------------------------------------------------------------------------|
D|-----------------3---------------------------------------------------------|
A|--5--5--5--3--5-----5--5--3--5--3--5--3------------------------------------|
E|---------------------------------------------------------------------------|


After Chorus:

e|---------------------------------------------------------------------------|
B|---------------------------------------------------------------------------|
G|--7-7-7-7--7-7-7-7----2-2-2-2--2-2-2-2----6-6-6-6--6-6-6-6-----------------|
D|--8-8-8-8--8-8-8-8----3-3-3-3--3-3-3-3----7-7-7-7--7-7-7-7-----------------|
A|--8-8-8-8--8-8-8-8----3-3-3-3--3-3-3-3----7-7-7-7--7-7-7-7-----------------|
E|--6-6-6-6--6-6-6-6----1-1-1-1--1-1-1-1----5-5-5-5--5-5-5-5-----------------|

e|---------------------------------------------------------------------------|
B|--6-6-6-6--6-6-6-6---------------------------------------------------------|
G|--7-7-7-7--7-7-7-7---------------------------------------------------------|
D|--7-7-7-7--7-7-7-7---------------------------------------------------------|
A|--5-5-5-5--5-5-5-5---------------------------------------------------------|
E|---------------------------------------------------------------------------|

e|---------------------------------------------------------------------------|
B|---------------------------------------------------------------------------|
G|--7-7-7-7--7-7-7-7----2-2-2-2--2-2-2-2----6-6-6-6--6-6-6-6-----------------|
D|--8-8-8-8--8-8-8-8----3-3-3-3--3-3-3-3----7-7-7-7--7-7-7-7-----------------|
A|--8-8-8-8--8-8-8-8----3-3-3-3--3-3-3-3----7-7-7-7--7-7-7-7-----------------|
E|--6-6-6-6--6-6-6-6----1-1-1-1--1-1-1-1----5-5-5-5--5-5-5-5-----------------|

e|---------------------------------------------------------------------------|
B|---------------------------------------------------------------------------|
G|--6-6-6-6--6-6-6-6---------------------------------------------------------|
D|--7-7-7-7--7-7-7-7---------------------------------------------------------|
A|--7-7-7-7--7-7-7-7---------------------------------------------------------|
E|--5-5-5-5--5-5-5-5---------------------------------------------------------|

Solo:

e|---------------------------------------------------------------------------|
B|--10--10--8--6--5--6--------6--5---------10--10--8--6--5--6----------------|
G|----------------------5-----------5--------------------------5-------------|
D|-------------------------7-----------7b-------------------------7----------|
A|---------------------------------------------------------------------------|
E|---------------------------------------------------------------------------|

e|---------------------------------------------------------------------------|
B|--6--5-------------------11--11--10--11--13--11--10--10b-------------------|
G|--------5-------------------------------------------------12\10\9----------|
D|-----------7--5--7--8------------------------------------------------------|
A|---------------------------------------------------------------------------|
E|---------------------------------------------------------------------------|

e|---------------------------------------------------------------------------|
B|---------------------------------------------------------------------------|
G|--6/14--14--12--14b-12-----------------------------------------------------|
D|------------------------15--14--15--15b--14--15----------------------------|
A|---------------------------------------------------------------------------|
E|---------------------------------------------------------------------------|

e|---------------------------------------------------------------------------|
B|--11--11--10--11--13--11--10--10b------------------------------------------|
G|-----------------------------------12\10\9--6/14--14--14-------------------|
D|---------------------------------------------------------------------------|
A|---------------------------------------------------------------------------|
E|---------------------------------------------------------------------------|

e|---------------------------------------------------------------------------|
B|--10---8----6---5----------------------------------------------------------|
G|--12b--10b--8b--7b---------------------------------------------------------|
D|---------------------------------------------------------------------------|
A|---------------------------------------------------------------------------|
E|---------------------------------------------------------------------------|

Now play the Verse once, the Pre-Chorus and the Chorus once and the bit after the 
chorus twice, then do the outro.

Outro: 

e|---------------------------------------------------------------------------|
B|---------------------------------------------------------------------------|
G|---------------------------------------------------------------------------|
D|-----------------2--3--3--2b----------------------2--3--3--2b--------------|
A|--5--5--5--3--5---------------3----5--5--5--3--5---------------3--5\-------|
E|---------------------------------------------------------------------------|


Well there you have it, it is pretty easy to play and quite fun too. Enoy it! :)
Suggest correction
comments
print report bad tab
guest
You may want to rate the tab now too:
select rating
Wanna post a correction for this tab? Suggest correction